Loading...

Aashiqui 2 guitar intro tabs all songs

2,616 views

Loading...

Loading...

Transcript

The interactive transcript could not be loaded.

Loading...

Loading...

Rating is available when the video has been rented.
This feature is not available right now. Please try again later.
Published on May 14, 2013

Chahun Mai ya Na
intro: am
e-----------0- e----------
b-------------- b----------3-
g--------2---- g----------
d-----2------- d------2----
a--0---------- a---0------
e-------------- e----------

e--------------------
b--------1--0---------
g---------------2--0--2
d-----2---------------
a--0-----------------
e-------------------- F




e----------- e-------------
b----------1 b-------------
g--------2-- g--4--5--7----
d------3---- d--------------
a----3------ a-------------
e--1-------- e-------------

Milne Hai Mujhse Aayi
Intro Tabs :

a--2-2-2-2-2-2-2--2/5-5-5--5/7--7-7-7-7
e---------------------------------------------------------
a--2-2-2-2-2-2-2--2/5-4-2-0---2-0-----------
e-----------------------------------------------3-2-----

Tum Hi Ho
with Capo on 1st fret

Intro Tabs :
e ----------------------------------------------------
B -----------0-------1------------------------------
G--------0------0------0-----2--------------------
D----2-------------------------------4--------------

Sun Raha Hai Na
With Capo on 3rd Fret (In video i've played with the capo on 2nd fret) Am7 C G
e|-------------------|------------------|-----------------|---------------|
B|----------1-------|----------1-------|---------3------|---------------|
G|-------------0----|-------------0----|------0-----0---|---------------|
D|------2-----------|------2-----------|--0-------------|---0h2p0-------|
A|--0---------------|--3---------------|----------------|-----------3-2--|
E-------------------|-------------------|----------------|---------------|

  • Category

  • License

    • Standard YouTube License

Loading...

When autoplay is enabled, a suggested video will automatically play next.

Up next


to add this to Watch Later

Add to

Loading playlists...