Upload
136,781

Subscription preferences

Loading...

Loading icon Loading...

Working...

BobbyCrispy

10 MUST LEARN Rock Guitar Riffs! ( With Tabs )

138,885 views 4 months ago
Pinterest: http://www.pinterest.com/bo...
Twitter: https://twitter.com/LearnRo...
Google Circles: https://plus.google.com/u/0...

E-----------------------------­----------------------
B----/8-----------------------­------------7---5---
G----/9--7--5--6-------5------­---------7---5---
D---------------------7-------­7--5--7------------
A-----------------------------­----------------------
E-----------------------------­----------------------

E-----------------------------­------------------------------­------
B----------5--5--(x3)---------­------------------------------­----
G----7b------------------7b--5­--b7---5--------------5--5---
D-----------------------------­-----------------7--5--7------­----
A-----------------------------­------------------------------­------
E-----------------------------­------------------------------­------

E----12---(x3)----------------­--------
B----12b---------10-------10--­10---
G-----------------------11----­----------
D-----------------------------­-----------
A-----------------------------­-----------
E-----------------------------­-----------

E-----------------------------­------------5--5--7b---
B-----------------------------­-----5h7----------------
G----------------------------5­h6----------------------
D---------------------5h7-----­------------------------
A-----------3h5/7-------------­------------------------
E----3h5----------------------­-------------------------

E-----------------------------­---------------------
B-----------------------------­---------------------
G-----------------------------­---------------------
D--------7--------7----------7­-------------------
A----/7-----7--6-----6---5----­-5---3/4--------
E-----------------------------­----------------5----

E------------5----------------­-----------------------
B---------5-----8p5-----------­---------------------
G----7b-----------------7p5--7­p5----------------
D-----------------------------­-----------7--5h7----
A-----------------------------­------------------------
E-----------------------------­------------------------

E-----------------------------­-----------------
B----7b--7b------7b--7--5-----­-----------
G-----------------------------­----7---5/6----
D-----------------------------­-----------------
A-----------------------------­-----------------
E-----------------------------­-----------------

E-----------------------------­------------------------------­--
B-----------------------------­------------------------------­--
G------------5h7-----5-----5--­----------------------------
D----5h7----------------7-----­-7---5-------5--6--6/7---
A-----------------------------­-------------7----------------­-
E-----------------------------­------------------------------­--

E---------------------------15­------------------------------­-----------------------
B----------13--15--15b------15­b---15p13--15p13-------13--13-­-15----
G----/14----------------------­------------------------------­-14-------------------
D-----------------------------­------------------------------­-------------------------
A-----------------------------­------------------------------­-------------------------
E-----------------------------­------------------------------­-------------------------

E-----------------------------­---------------------------
B-----------------------------­---------------------------
G----0h2----2p0---2p0---------­-------------2-----
D-----------------------------­-2p0--------------2-----
A-----------------------------­---------2b--0----0-----
E-----------------------------­---------------------------
Read more
Pinterest: http://www.pinterest.com/bo...
Twitter: https://twitter.com/LearnRo...
Google Circles: https://plus.google.com/u/0...

E-----------------------------­----------------------
B----/8-----------------------­------------7---5---
G----/9--7--5--6-------5------­---------7---5---
D---------------------7-------­7--5--7------------
A-----------------------------­----------------------
E-----------------------------­----------------------

E-----------------------------­------------------------------­------
B----------5--5--(x3)---------­------------------------------­----
G----7b------------------7b--5­--b7---5--------------5--5---
D-----------------------------­-----------------7--5--7------­----
A-----------------------------­------------------------------­------
E-----------------------------­------------------------------­------

E----12---(x3)----------------­--------
B----12b---------10-------10--­10---
G-----------------------11----­----------
D-----------------------------­-----------
A-----------------------------­-----------
E-----------------------------­-----------

E-----------------------------­------------5--5--7b---
B-----------------------------­-----5h7----------------
G----------------------------5­h6----------------------
D---------------------5h7-----­------------------------
A-----------3h5/7-------------­------------------------
E----3h5----------------------­-------------------------

E-----------------------------­---------------------
B-----------------------------­---------------------
G-----------------------------­---------------------
D--------7--------7----------7­-------------------
A----/7-----7--6-----6---5----­-5---3/4--------
E-----------------------------­----------------5----

E------------5----------------­-----------------------
B---------5-----8p5-----------­---------------------
G----7b-----------------7p5--7­p5----------------
D-----------------------------­-----------7--5h7----
A-----------------------------­------------------------
E-----------------------------­------------------------

E-----------------------------­-----------------
B----7b--7b------7b--7--5-----­-----------
G-----------------------------­----7---5/6----
D-----------------------------­-----------------
A-----------------------------­-----------------
E-----------------------------­-----------------

E-----------------------------­------------------------------­--
B-----------------------------­------------------------------­--
G------------5h7-----5-----5--­----------------------------
D----5h7----------------7-----­-7---5-------5--6--6/7---
A-----------------------------­-------------7----------------­-
E-----------------------------­------------------------------­--

E---------------------------15­------------------------------­-----------------------
B----------13--15--15b------15­b---15p13--15p13-------13--13-­-15----
G----/14----------------------­------------------------------­-14-------------------
D-----------------------------­------------------------------­-------------------------
A-----------------------------­------------------------------­-------------------------
E-----------------------------­------------------------------­-------------------------

E-----------------------------­---------------------------
B-----------------------------­---------------------------
G----0h2----2p0---2p0---------­-------------2-----
D-----------------------------­-2p0--------------2-----
A-----------------------------­---------2b--0----0-----
E-----------------------------­--------------------------- Show less

Multi Song Guitar Lessons Play

Learn how to play several songs in each video. How to play popular riffs and songs from various artists such as The Beatles, Nirvana, Black Sabbath, The Rolling Stones, Cream, CCR, Metallica, The Doors, Led Zeppelin and many others....with tabs in the video.

Led Zeppelin Guitar Lessons Play

Stairway to Heaven ( & solo ), Rock n' Roll, Moby Dick, Black Dog, Whole Lotta Love, Over the Hills and Far Away, Tangerine. Free online guitar lessons best on Youtube.

Metallica Guitar Lessons Play

Master of Puppets, For Whom the Bell Tolls, Fade to Black, Enter Sandman, Nothing Else Matters, One Intro. Free online guitar lessons best on Youtube.
Loading...
Working...
Sign in to add this to Watch Later

Add to