Loading...

THE BEATLES - Day Tripper- Guitar Lesson - Very Easy!!

292,986 views

Loading...

Loading...

Transcript

The interactive transcript could not be loaded.

Loading...

Loading...

Rating is available when the video has been rented.
This feature is not available right now. Please try again later.
Published on Nov 1, 2008

♫Learn 100 Popular Rock Riffs Guitar Lesson: https://youtu.be/EJSz2QxB5oo
My guitar lesson website: http://www.bobsguitarlessons.yolasite...

**TABS FOR THIS LESSON: http://jpst.it/AejG
Easy song for beginner guitar players! How to play Day Tripper by The Beatles. Guitar lesson with easy to follow step by step method with tabs in the video.

Free Guitar Lessons: http://www.bobsguitarlessons.yolasite...
E-----------------------------------------------------
B-----------------------------------------------------
G----------------------------------------------------
D--------------------2--0--------4--------0--2----
A----------------2-----------2-------2-------------
E--0--0---3-4--------------------------------------

E-----------------------------------------------------
B-----------------------------------------------------
G--------------------2--0--------4--------0--2----
D----------------2-----------2-------2--------------
A----0---3-4----------------------------------------
E-----------------------------------------------------

F#7
E----2---
B----2---
G----3---
D----2---
A----4---
E----2---

A
E----5---
B----5---
G----6---
D----7---
A----7---
E----5---

G#
E----4---
B----4---
G----5---
D----6---
A----6---
E----4---

C#
E----4---
B----6---
G----6---
D----6---
A----4---
E----x---

B
E----2---
B----4---
G----4---
D----4---
A----2---
E----x---

E------------------------------------------------------
B------------------------------------------------------
G----4---------------4-------------6------------4---
D----4------------4-----7-----4-------4---7--------
A----2----5--6---------------------------------------
E------------------------------------------------------

E---------------------------------------------------
B-----------------------------------10------------
G-------------7-------7---9(B)---------9(B)---
D----9---9-------9-------------------------------
A---------------------------------------------------
E---------------------------------------------------

E-----------------10----------10-----12(B)---10----------
B----12---12----------12-----------------------------12---
G---------------------------------------------------------------
D---------------------------------------------------------------
A---------------------------------------------------------------
E---------------------------------------------------------------

Loading...

Advertisement
to add this to Watch Later

Add to

Loading playlists...