Upload

Loading...

LIVING AFTER MIDNIGHT - Judas Priest - Easy Guitar Lesson

106,751 views

Loading...

Loading...

Transcript

The interactive transcript could not be loaded.

Loading...

Loading...

Rating is available when the video has been rented.
This feature is not available right now. Please try again later.
Uploaded on Oct 31, 2009

My guitar lesson website: http://www.bobsguitarlessons.yolasite...
♫ Learn 100 Popular Rock Riffs Guitar Lesson: https://youtu.be/EJSz2QxB5oo

Easy song for beginner players! How to play Living After Midnight by Judas Priest. Guitar lesson with step by step method with easy to follow tabs in the video.

TABS for this lesson available on my guitar lesson website: http://www.bobsguitarlessons.yolasite...
Facebook: https://www.facebook.com/BobbyCrispyG...
E-------------------------------------------------------------------------------------------------
B-------------------------------------------------------------------------------------------------
G----9---9------7---------2---2----------4----------9---9-----7--------2---2---------4---
D----9---9------7---------2---2----------4------9---9---9-----7--------2---2---------4---
A----7---7------5----0---0---0-----2----2-----7---7---7-----5----0---0---0----0---2---
E----0---0---------------------------------------------0---0------------------------------------

E----------------------------------------------------------------
B----------------------------------------------------------------
G---------9---9-----7---------2---2------4---4---4---4----
D----9----9---9-----7---------2---2-----4---4---4---4----
A----7----7---7-----5----0---0---0-----2---2---2---2----
E----------0---0-----------------------------------------------

E-------------------------------------------------------------------------------
B-------------------------------------------------------------------------------
G---------9--------------------------------------------------------------------
D---------9--( 8 TIMES )----5--------------------------------------------
A---------7----------------------5--2--2--2--2--2--2---( 2 TIMES )--
E----0---------------------------3--0--0--0--0--0--0----------------------


E--------------------------------------
B--------------------------------------
G-------------------4------7---7----
D----5------4------4------7---7----
A----5------4------2------5---5----
E----3------2------------------------

E------------------------------------------------------------------------------------------------------
B---------3---3---2--------3---3---3---2----------------------------------------------------------
G---------2---2---2--------2---2---2---2----------------------------------------------------------
D------------------------------------------------------------------------------------------------------
A----0-------------------0----------------------2--( 6 TIMES )---5-----2-- ( 6 TIMES )-----
E------------------------------------------------0---------------------3-----0----------------------

E--------------------------------
B--------------------------------
G----4------7------4-----------
D----4------7------4-----------
A----2------5------2-----------
E---------------------------------

Loading...

Advertisement
When autoplay is enabled, a suggested video will automatically play next.

Up next


to add this to Watch Later

Add to

Loading playlists...