Loading...

THE RAIN SONG - Led Zeppelin ( 1 of 3 ) Guitar Lesson - Jimmy Page

423,119 views

Loading...

Loading...

Transcript

The interactive transcript could not be loaded.

Loading...

Loading...

Rating is available when the video has been rented.
This feature is not available right now. Please try again later.
Published on Jun 4, 2010

My guitar lesson website: http://www.bobsguitarlessons.yolasite...
♫ Learn 100 Popular Rock Riffs Guitar Lesson: https://youtu.be/EJSz2QxB5oo

**TABS FOR THIS LESSON: http://jpst.it/Afdg
How to play The Rain Song by Led Zeppelin. Guitar lesson with step by step method with easy to follow tabs in the video.
TABS for this lesson available on my guitar lesson website: http://www.bobsguitarlessons.yolasite...
Part 2 of 3 http://youtu.be/S9FkbbeIR4Y

D----0----------------0---0---0-----0-------------0---0---0---------------------------------------
C-------7-------------7---7---7-------6-----------6---6---6-----5--5--3--2-----3------3--3---
G---------0-----------0---0---0---------0---------0---0---0-----4--4--4--4-----3------3--3---
C------------7--------7---7---7------------6------6---6---6-----5--5--5--5-----3------3--3---
G--------------0------0---0---0--------------0----0---0---0-----0--0--0--0-----0------0--0---
D-------------------------------------------------------------------------------------------------------

Riff#2


D----------------------------(---0-----0----0------0-------0----0----0--------------------------)---
C----------------------------(---11---9----12----11------4----9----9--------------------------)---
G------------2----2--2----(----0----0----0-------0-------0----0----0 PLAY TWICE )---
C------------2----2--2----(----11---9----12----11------4----9----9--------------------------)---
G----0--0--0----0--0-----(---0-----0----0------0--------0----8----8-------------------------)---
D--------------------------------------------------------------------------------------------------------

Riff#3


D----0----------------------------------------------5---5---5-------------5---5---5----5--5----
C----10/9--------9----9---------9-----9--------0---0---0--------------0---0---0-------------
G----11/10------10--10-------10---10-------0---0---0--------------0---0---0-------------
C----12/11------11--11-------10---10-------5---4---0-----0---4---5---4---0-------------
G----0------------0----0---------0-----0----------------------------------------------------------
D-----------------------------------------------------------------------------------------------------

Loading...

Advertisement
When autoplay is enabled, a suggested video will automatically play next.

Up next


to add this to Watch Later

Add to

Loading playlists...