Loading...

Paul Reed Smith Guitar Solo

21,602 views

Loading...

Loading...

Loading...

Rating is available when the video has been rented.
This feature is not available right now. Please try again later.
Published on Mar 30, 2008

here is the tab:
e---------------------------------------------------------------------------------------------------------------
b-------------------9-12—12brb--/9---- -------------------------------------------------------------------
g-----5/7brb\5-------------------------- rb7--5--------------5/7------------15---------15----------------
d----------------------------------------------------7---5/7---5/7---12h14-----12h14-----12h14p12----
a-------------------------------------------------------------------------------------------------------------14
E---------------------------------------------------------------------------------------------------------------

e---------------------------------------------------------------------------------------------------------------
b-----------5--------------5-----------5---5--------------------------12h13--15----12h13--15-----------
g-----7b9---------7b9--------7b9-----------7---5--- rb7p5--------12-------------12---------------------
d----------------------------------------------------------------5-----12--------------12---------------------
a----------------------------------------------------------------------------------------------------------------
E---------------------------------------------------------------------------------------------------------------

e-------------------------------------------15brb------------10/12/10/3------10/12/10/3----17----------
b-----13p12-----------/10-12-13------------------15-------8/10/8 /5--------8/10/8 /5-----15---------
g--------------14----------------------------------------------------------------------------------------------
d---------------------------------------------------------------------------------------------------------------
a----------------------------------------------------------------------------------------------------------------
E---------------------------------------------------------------------------------------------------------------

e------17b19rb17p15--17----8—7brb-----------------------------------------------------------------
b--------------------------------------------8--------------------------------------------------------------
g------------------------------------------------7------5p4-------------------------------------------------
d--------------------------------------------------------------5----------------------------------------------
a------------------------------------------------------------------5/3----5brbp3----------------------------
E------------------------------------------------------------------------------------5----3/5-----------------

e---------------------------------------------------------------------------------------------------------8-----
b----------------9--------------9-----------------------------------------9-----------------9----8/10----10-
g-----5h7--5--------5h7--5-------5h7----4brb-------------5h7--5--------5--5h7--5--------------------
d----------------------------------------------------5--7----------------------------------------------------
a-------------------------------------------------------------------------------------------------------------
E------------------------------------------------------------------------------------------------------------

e---8h10---8--10-------8h10---8--10---7brb ------8h10-0—10h12--0—12h13---12--15-----
b---------------------8-----------------------------8------------------------------------------------------
g------------------------------------------------------7---------------------------------------------------
d------------------------------------------------------------------------------------------------------------
a-------------------------------------------------------------------------------------------------------------
E------------------------------------------------------------------------------------------------------------

e-----12h13p12-----------------------------------------------------------------------------------------------
b-------------------13-----------------------------------------------------------------------------------------
g------------------------12-------------------------------------------------------------------------------------
d------------------------------------------------------------------------------------------------------------
a-------------------------------------------------------------------------------------------------------------
E------------------------------------------------------------------------------------------------------------

Brb small bend and release
h-hammer on
p-pull off
/-slide
b-bend

  • Category

  • License

    • Standard YouTube License

Loading...

When autoplay is enabled, a suggested video will automatically play next.

Up next


to add this to Watch Later

Add to

Loading playlists...