Loading...

All Apologies by NIRVANA - Guitar Lesson - Kurt Cobain

137,470 views

Loading...

Loading...

Transcript

The interactive transcript could not be loaded.

Loading...

Loading...

Rating is available when the video has been rented.
This feature is not available right now. Please try again later.
Published on May 22, 2012

My guitar lesson website: http://www.bobsguitarlessons.yolasite...

**TABS FOR THIS LESSON: http://jpst.it/Aeh4
How to play All Apologies by Nirvana, great acoustic guitar song! Guitar lesson with step by step method with easy to follow tabs in the video.


TABS for this lesson available on my guitar lesson website: http://www.bobsguitarlessons.yolasite...
Facebook: https://www.facebook.com/BobbyCrispyG...

E------------------------------------------------
B------------------------------------------------
G------------------------------------------------
D------------------------------------------------
A-------9---10---9---/12---12---10---9----
D---0-------------------------------------------

E--------------------------------------------------
B--------------------------------------------------
G--------------------------------------------------
D------------------------/12---12---10---9----
A--------9---10---9-----------------------------
E---0---------------------------------------------

E--------------------------------------------------
B--------------------------------------------------
G--------------------------------------------------
D------------------------/12---12---10---9----
A--------9---10---9-----------------------------
E---0---------------------------------------------

E--------------------------------------------------
B--------------------------------------------------
G--------------------------------------------------
D------------------------/12---12---10---9----
A--------9---10---9-----------------------------
E---0---------------------------------------------

E--------------------------------------------------
B--------------------------------------------------
G------------------------/11---11---9-----------
D------------------------------------------12-----
A--------9---10---9-----------------------------
E---0---------------------------------------------

( SLIDE UP TO CHORD OPTIONAL )
G CHORD
E----------
B----------
G---------
D---5-----
A---5-----
E---5-----

E---
B---
G---2
D---2
A---0
E---

Loading...

Advertisement
to add this to Watch Later

Add to

Loading playlists...