Loading...

Juggernauts Enter Shikari Acoustic Cover

5,642 views

Loading...

Loading...

Loading...

Rating is available when the video has been rented.
This feature is not available right now. Please try again later.
Published on Aug 6, 2009

We tried to cover Juggernauts by Enter Shikari. We failed. (We actually manage to start the song at 1:35) I did not write this song, it is owned and was written by Enter Shikari

TAB:

GUITAR 1
e------------------5-----
B--6-6-5-6-5-6---6---
G-------------------------
D-------------------------
A-------------------------
E-------------------------
GUITAR 2
e--5-5---5---5-8-5-----
B-------8---8------------
G-------------------------
D------------------------
A-------------------------
E-------------------------

  • Category

  • License

    • Standard YouTube License

Loading...

When autoplay is enabled, a suggested video will automatically play next.

Up next


to add this to Watch Later

Add to

Loading playlists...