Loading...

Red Hot Chili Peppers - Californication (intro guitar and bass version!)

15,017 views

Loading...

Loading...

Transcript

The interactive transcript could not be loaded.

Loading...

Loading...

Rating is available when the video has been rented.
This feature is not available right now. Please try again later.
Published on Sep 25, 2015

Go to http://guitardomination.net/free-stuff/ to get two kindle eBooks..View the tab below.
E |-----------------------------------------------------------------------------|
B |--------------------0--------1---------------------------------------------|
G |-----------------------------------------------------------------------------|
D |-----------2-----------------------------------2--------0h-2p-0-------|
A |--0---------------------------------------------------------------------3--|
E |------------------------------------------------------------------------------|




--------------------------------------|
--------------------------------------|
--------0--2------------------------|
---------------------------0---------|
-----3------------------------3-----|
--1----------------------------------|




---------------------------------------------------------------------------------------|
--------------------0--------1-------------------------------------------------------|
---------------------------------------------------------------------------------------|
-----------2-----------------------------------2--------0h-2p-0-----------------|
--0-----------------------------------------------------------------------3----------|
---------------------------------------------------------------------------------------|




-----------------------------------|
-----------------------------------|
--------0--2---------------------|
------------------------3--0-----|
-----3----------------------------|
--1-------------------------------|

The above tab is for educational purposes only

Don`t forget to hit subscribe!

Loading...

Advertisement
When autoplay is enabled, a suggested video will automatically play next.

Up next


to add this to Watch Later

Add to

Loading playlists...