Loading...

Guitar Lesson - CRAZY TRAIN - Randy Rhoads - ( Video 1 of 3 ) With Printable Tabs

876,216 views

Loading...

Loading...

Transcript

The interactive transcript could not be loaded.

Loading...

Loading...

Rating is available when the video has been rented.
This feature is not available right now. Please try again later.
Uploaded on May 29, 2009

My guitar lesson website: http://www.bobsguitarlessons.yolasite...
♫100 Popular Rock Riffs Guitar Lesson: https://youtu.be/EJSz2QxB5oo

**TABS FOR THIS LESSON: http://jpst.it/Aejt
my guitar lesson website: http://www.bobsguitarlessons.yolasite...
CRAZY TRAIN ( Video 1 of 3 )
Part 2 of 3
http://youtu.be/1pIMmuHeNaQ

Part 3 of 3
http://youtu.be/d4mLeAHK35s
A ----------4-------5-------4-------2---0-------0----2---0---------------
E ----2-2-------2-------2-------2----------4-------------------4----0----
G------------------------------------------------------------------------------
D-------------------------------------------------------------------------------
A-------------------------------------------------------------------------------
E-------------------------------------------------------------------------------

E------------------------
B------------------------
G-----------------------
D -----7-------9-------
A -----5-------7-------
E------------------------

E ---------------------
B --------------5-----
G --------------6-----
D --------------7-----
A -----0---0----------
E ---------------------

E ---------------------
B --------------5-----
G --------------4-----
D --------------6-----
A -----0---0---------
E ---------------------

E ---------------------
B --------------3-----
G --------------2-----
D --------------4-----
A -----0---0---------
E ---------------------

E ----------------------
B --------------2------
G --------------2------
D --------------2------
A -----0---0-----------
E-----------------------

E--------------------------------------
B---------p-p------------------------
G-------4-2-0-----p-p--------------
D-----------------4-2-0-----pp-----
A---------------------------4-2-0----

E -------5-----------------------------------------------
B -------5----------------------------P-----------------
G ---------------------4------------7--0-------2-------
D ---------------------2------------7--0-------2-------
A 0-0-----------0-0----------0-0--------0----0------
E --------------------------------------------------------

E ------------------------------------
B ------------------------------------
G ----------------------------7(H)--
D -----------------7-----7(H)-------
A- 4---4---4-----5------------------
E -2---0---2-------------------------

E ---------------------------------------
B ---------------------------------------
G ---------------------------------------
D -----------------7---------------------
A- 4---4---4-----5-----0-5-4-2------
E -2---0---2----------------------------

Loading...

to add this to Watch Later

Add to

Loading playlists...