Loading...

Improvisation on The Witcher Theme

6,914 views

Loading...

Loading...

Loading...

Rating is available when the video has been rented.
This feature is not available right now. Please try again later.
Published on Jan 7, 2011

Some improvisation on the theme of the polish video game "The Witcher".
It's the first time I post a video where I'm playing guitar... I'm begginer but I hope you'll appreciate this video !

UPDATE : Ok, I'll try to explain how to play this.
There are two guitar, the first do always the same things. the chords is Em. The tab should looks like this :
e ----------------------------
B --0-------0------0--------
G ---0-------0------0-------
D ----2--2----2--2---2--2-
A ------2--------2-------2---
E -0-------0-------0---------
Simply doing this in loop.

The second guitar will play the real theme of the Witcher. This is how could looks like the tab. It's not exactly all the song I did, because I did some improvisation, but you have the main lines. ;)

e -0-7-5-2-3-5-0--0-7-5-2-3-2-0-----0-0-2-3-5-7-5-3-2--2-3-2-0--------0-
B ---------------------------------------3-0-------------------------------------3-0---0-
G ----------------------------------------------------------------------------------------0-
D ----------------------------------------------------------------------------------------2-
A -----------------------------------------------------------------------------------------2-
E -0---------------0--0---------------------0-------------------------------------------0-

My tabs are not really nice here, so you can take on look on this image for help.
http://uppix.net/0/1/a/5dc651e9261b12...

_________________

Une petite impro à la guitare sur le thème du jeu vidéo "The Witcher". C'est la première fois que je poste une vidéo où je joue de la guitare... Je débute, mais j'espère que la vidéo vous plaira malgré tout !

MISE A JOUR : Ok, je vais essayer de vous expliquer comment jouer cette musique.
Elle se joue à deux guitares (à moins de bien gérer en picking, mais ce n'est pas mon cas). La première fait toujours la même chose. Un simple accord Mi mineur (Em). Voilà à quoi ressemble la tablature :
e ----------------------------
B --0-------0------0--------
G ---0-------0------0-------
D ----2--2----2--2---2--2-
A ------2--------2-------2---
E -0-------0-------0---------
Il suffit de faire ça en boucle.

La seconde guitare va jouer le thème de The Witcher. Voici ce à quoi pourrait ressembler la tablature. Ce n'est pas exactement ce que je joue sur la vidéo, car j'ai fait quelques impro. Mais avec ça, vous avez les grandes lignes. ;)

e -0-7-5-2-3-5-0--0-7-5-2-3-2-0-----0-0-2-3-5-7-5-3-2--2-3-2-0--------0-
B ---------------------------------------3-0-------------------------------------3-0---0-
G ----------------------------------------------------------------------------------------0-
D ----------------------------------------------------------------------------------------2-
A -----------------------------------------------------------------------------------------2-
E -0---------------0--0---------------------0-------------------------------------------0-

Mes tablatures ne sont pas très jolie ici, vous pouvez jetez un oeil a cette image si nécessaire.
http://uppix.net/0/1/a/5dc651e9261b12...

  • Category

  • License

    • Standard YouTube License

Loading...

When autoplay is enabled, a suggested video will automatically play next.

Up next


to add this to Watch Later

Add to

Loading playlists...