Loading...

TOOL (Cover) - Sober

274,922 views

Loading...

Loading...

Loading...

Rating is available when the video has been rented.
This feature is not available right now. Please try again later.
Published on Aug 24, 2007

INTRO 1 - (bend 12th on the G to the pitch of the 10th on the B)
(See video for picking)
E]---------------------------------------
B]----10-------------------------------
G]----12^------------------------------
D]--------------------------------------
A]--------------------------------------
D]--------------------------------------

INTRO 2 -- continued
E]---------------------------------------
B]--------------------------------------
G]---14--------------15---------------
D]---12--------------12---------------
A.]---12--------------13--------------
D]-----------0--0----------------------

INTRO 3 - continued
E]-------------------------------------------------------------
B]-------------------------------------------------------------
G]-14------14------14-14------14-----14-12---------
D]-------------------------------------------------------------
A.]-12------12------12-12------12-----12-10---------
D]-------------------------------------------------------------
{
E]------------------------------------------------------------------
B]------------------------------------------------------------------
G]-12-12-12/(15)--15------15-15------15----15--12---
D]------------------------------------------------------------------
A.]-10-10-10/(13)--13------13-13------13----13--10---
D]------------------------------------------------------------------

(On the last measure of INTRO 3 before the VERSE)
E]-----------------------------------------------------------------
B]-----------------------------------------------------------------
G]-12-12-12/(15)--15------15-15------17---------------
D]-----------------------------------------------------------------
A.]-10-10-10/(13)--13------13-13------15---------------
D]-----------------------------------------------------------------

VERSE -- part 1-- (same as INTRO 2 but clean with tremolo chorus/flanger)

VERSE -- part 2 -- (I've tabbed just the chords but same strumming as INTRO 3)
E]----------------------------------------------------------
B]--3-----1-----4-----1-----3-----1------4------6-------
G]--2-----0-----3-----0-----2-----0------3------5-------
D]--0-------------------------------------------------------
A]----------------------------------------------------------
D]----------------------------------------------------------

BRIDGE -- (tabbing this part it practically impossible because it's not consistent... at least for me. Studying the song is crucial for the strumming here. But here are the chords. It's the best I can do / see video)
E]-----------------------------------------------------------------------
B]----------------------------15--------------------15-----------------
G]----------------------------14--------------------14-----------------
D]--12----12-12-12-12-----------12-12-12----------12---x-x---
A.]--12----12-12-12-12-----------12-12-12----------12---x-x---
D]--12----12-12-12-12-----------12-12-12----------12---x-x---
{
E]----------------------------------------------------------------
B]----------------------------16--------------------16---------
G]----------------------------15--------------------15----------
D]--13----13-13-13-13-----------13-13-13---------------
A.]--13----13-13-13-13-----------13-13-13--------------
D]--13----13-13-13-13-----------13-13-13---------------

CHORUS
E]----------------------------------------------------------
B]------------------4---4-4-4-4-4-4-4-4-4-4-4-4---
G]------------------3---3-3-3-3-3-3-3-3-3-3-3-3---
D]--0--------1-----1---------------------------------------
A.]--0--------1-----1---------------------------------------
D]--0--------1-----1----------------------------------------


...to be continued

  • Category

  • License

    • Standard YouTube License
Comments are disabled for this video.
Advertisement
When autoplay is enabled, a suggested video will automatically play next.

Up next


to add this to Watch Later

Add to

Loading playlists...