IL
Upload

Loading...

LYNYRD SKYNYRD - FREEBIRD ( Intro ) - How to Play - Free Online Guitar Lessons With Tabs

298,729

Loading...

Loading...

Transcript

The interactive transcript could not be loaded.

Loading...

Loading...

Rating is available when the video has been rented.
This feature is not available right now. Please try again later.
Uploaded on Sep 15, 2008

Free Guitar Lessons: http://www.bobsguitarlessons.yolasite...
E---------------------------------------­-------------------------------
B----3(S)--8-----7-8-7-----8--8--7------­------------------------
G---------------------------------------­---9--7--9--11--9--7--9--
D---------------------------------------­-------------------------------
A---------------------------------------­-------------------------------
E---------------------------------------­-------------------------------

E---------------------------------------­---------------------
B---------------------------------------­---------------------
G----9--7----------------10--10--10--9--­--------------
D------------9--9--10-------------------­----10-----------
A---------------------------------------­------------10------
E---------------------------------------­---------------------

E---------------------------------------­-----------------
B---------------------------------------­-----------------
G----4--5------7-6-7-----19-17--------17­-19----
D---------------------------------------­19-------------
A---------------------------------------­-----------------
E---------------------------------------­-----------------

E-----------------------------------
B-----------------------------------
G----7--5---------5--7----12---
D-------------7--------------------
A-----------------------------------
E-----------------------------------

Loading...

Advertisement
Autoplay When autoplay is enabled, a suggested video will automatically play next.

Up Next


to add this to Watch Later

Add to