Loading...

Guitar Lesson: Stronger- Kanye West (acoustic guitar)

131,936 views

Loading...

Loading...

Transcript

The interactive transcript could not be loaded.

Loading...

Loading...

Rating is available when the video has been rented.
This feature is not available right now. Please try again later.
Published on Mar 21, 2008

Tuning: Drop D (DADGBe)
e|-----------------------------------------------
B|---------------------------------------------
G|--------------------------------------------
D|-----------2----2---------------5---5----
A|-------------------------------------------
D|--2--2----------------5---5--------------

e|---------------------------------------
B|-------------------------------------
G|---2h4--2---0h2--0---------------
D|----------------------------0h2--0 -
A|----------------------------------------0h2--0
D|----------------------------------------

e|--------------------------------
B|----------------0--------------
G|--------0----------0------0---
D|-----2-----2-----------2----
A|-----------------------------
D|-2----------------------------

e|--------------------------
B|--------------------------
G|-------0-----2p0-----0--
D|---0------0--------4-----
A|--------------------------
D|-0-----------------------

e|-----------------------------------------------
B|------------------0---------------------------
G|----------0----------0------0---------0------
D|------2------2----------2----------2-----2---
A|--4------------------------------3------------
D|---------------------------------------------

e|---------------------0----0---0---0---0
B|--------------------0----0---0---0---0
G|----------2--------0----2---2---0---2
D|------1------1-----2----0---2---2---1
A|--------------------x----0---4---3---2
D|--1-----------------2----0---x---x---1

Guitar: Taylor 414ce
Strings: Elixir Phosphor Bronze Nanoweb
Picks: Bluechip TPR60 (bluechippick.net)
-Everyone should try these picks out! They will help your playing more than anything you can buy with money. Trust me they are worth it.

Loading...

to add this to Watch Later

Add to

Loading playlists...