Upload

Loading...

70's Porn Music Bass

110,552

Loading...

Loading...

Loading...

Rating is available when the video has been rented.
This feature is not available right now. Please try again later.
Uploaded on Feb 24, 2008

So I found this from looking for sound effects with my friend and I just recently learned it myself since there are no tabs. This video is on here by popular demand amongst friends.

This is for SupersonicSimpson

G|----------|----------|----------------­---2-|
D|----------|----------|-------------3h5­----|
A|--------3-|-5-3----|---------3h5------­--|
E|3-5-5---|------3--|-3-3h5-------------­|

This next part is played the first, third, fifth, etc.(essentially every other time you play the riff above)

G|5-4-0-|
D|---------|
A|---------|
E|---------|

after doing those riffs above "x" amount of times, you go onto the next riff a few times as well.

G|-----------|-----------|--------------­------|
D|-----------|-----------|--------------­------|
A|---------3-|-------5--|----3~5-3-5-3--­-|
E|3-5-5----|-3-5-5---|-5---------------5­-|

G|------------------2-|
D|-------------3h5---|
A|--------3h5---------|
E|3-3h5--------------|

after doing that sequence a few times, you rest then start all over again. After you repeat, you are done (or if you are feeling extra saucy you can repeat it again, nothing is holding you back.

I know that the tab is a bit off level, but it still comes out well enough to read it. If you can't, you could probably copy and paste it to a word document and it will come out fine.

  • Category

  • License

    • Standard YouTube License

Loading...

When autoplay is enabled, a suggested video will automatically play next.

Up Next


to add this to Watch Later

Add to

Loading playlists...