Loading...

Don't Fear the Reaper- Blue Oyster Cult - Guitar Lesson

161,084 views

Loading...

Loading...

Transcript

The interactive transcript could not be loaded.

Loading...

Loading...

Rating is available when the video has been rented.
This feature is not available right now. Please try again later.
Published on Aug 19, 2012

My guitar lesson website: http://www.bobsguitarlessons.yolasite...

**TABS FOR THIS LESSON: http://jpst.it/AekF
Classic rock song Don't Fear the Reaper ( that needs more cowbell, lol ) by Blue Oyster Cult. Guitar lesson with step by step method with easy to follow tabs in the video.

TABS for this lesson available on my guitar lesson website:
http://www.bobsguitarlessons.yolasite...
Facebook: https://www.facebook.com/BobbyCrispyG...

E------------------------------------------------------------------------
B------------------------------------------------------------------------
G----------2--0---------------0-----------------0---------------0----
D-------2------------------0----------------0----------------0--------
A----0-----------------2----------------3----------------2------------
E-------------------3----------------1----------------3----------------

CHORDS:
F, G, Am, F, E, Am,
(G, F, G, Am) x4

Main riff (x4)

1st solo break

E----15--13--12--13--12----------------------------------------------
B--------------------------------15b---15--13--12--------------------
G---------------------------------------------------------12--------14---
D---------------------------------------------------------------14---------
A----------------------------------------------------------------------------
E----------------------------------------------------------------------------

E---------------------------------------------------------------------------
B----------12--13--12-------15--15b--13--12---------------------
G----/14------------------14--------------------------12--------14---
D--------------------------------------------------------------14---------
A---------------------------------------------------------------------------
E---------------------------------------------------------------------------

E----------------12--------------------------------------
B----10--12b------b12--10------------12--10----
G----------------------------------12--9----------------
D----------------------------------------------------------
A----------------------------------------------------------
E----------------------------------------------------------

Am

E---------------------------------------------------------
B----------------13-----------------------12-----------
G----10--13--------(x5)----10--12---------(x6)---
D---------------------------------------------------------
A---------------------------------------------------------
E---------------------------------------------------------

SOLO

Main riff (x8)

CHORDS:
F, G, Am, F, E, Am,
(G, F, G, Am) x4

Main riff (x4)

2nd Solo Break

E----12-------------------12---------------------------------------
B---------12b---10----------12b--10---------10--10--10---
G---------------------------------------------/12-------------------
D---------------------------------------------------------------------
A---------------------------------------------------------------------
E---------------------------------------------------------------------

E------------------------------------------------------------
B----10--12--12b--\10--8/10--10/12--12\10-----
G------------------------------------------------------------
D------------------------------------------------------------
A------------------------------------------------------------
E------------------------------------------------------------

Loading...

Advertisement
When autoplay is enabled, a suggested video will automatically play next.

Up next


to add this to Watch Later

Add to

Loading playlists...