Loading...

Money Solo by PINK FLOYD ( 1 of 3 ) Guitar Lesson - David Gilmour

162,274 views

Loading...

Loading...

Transcript

The interactive transcript could not be loaded.

Loading...

Loading...

Rating is available when the video has been rented.
This feature is not available right now. Please try again later.
Published on Feb 19, 2010

My guitar lesson website: http://www.bobsguitarlessons.yolasite...
♫ Learn 100 Popular Rock Riffs Guitar Lesson: https://youtu.be/EJSz2QxB5oo

**TABS FOR THIS LESSON: http://jpst.it/Aeu_
How to play the solo from Money by Pink Floyd, from the Dark Side of the Moon album, 1973.
TABS for this lesson available on my guitar lesson website: http://www.bobsguitarlessons.yolasite...
Part 2 of 3 http://youtu.be/bLI6T8kscFs

E---------------------------------------------------------10----------
B-----------------10b-------7h10---------------/12-------12----
G----9b--7----------------------------9b--7------------------------
D-----------------------------------------------------------------------
A-----------------------------------------------------------------------
E-----------------------------------------------------------------------


E------------------12b----------------------------------------
B----12---12------------12---12---------------------------
G---------------------------------------9b---7----9----------
D--------------------------------------------------------9-----
A---------------------------------------------------------------
E---------------------------------------------------------------

E-------------7-----------------------10----12----12---12b----------10---
B----------7-----7----10b----12--------------------------------12----------
G----9b-------------------------------------------------------------------------
D---------------------------------------------------------------------------------
A---------------------------------------------------------------------------------
E---------------------------------------------------------------------------------


E----12b----10--12--------------------------------------------------------
B--------------------------12---10------------------------------------------
G---------------------------------------10\9---7----------------------------
D-----------------------------------------------------9---7-------------------
A--------------------------------------------------------------8\7--5--------
E-------------------------------------------------------------------------7----

E--------------------------------------
B--------------------------------------
G----------------------------7--------
D-----------7----9\7-----------9----
A----7/9---------------9-------------
E--------------------------------------

E--------------7-----------------------10---12---12b----12p10----------
B----------7-------10---/12---12-------------------------------------12---
G----9b------------------------------------------------------------------------
D--------------------------------------------------------------------------------
A--------------------------------------------------------------------------------
E--------------------------------------------------------------------------------

E----14b----14--12---------------------------------------
B-------------------------15--12---------------------------
G-------------------------------------14--11----9--11----
D-------------------------------------------------------------
A-------------------------------------------------------------
E-------------------------------------------------------------


E---------------------------------------------------------
B----10b---10---8---7--------------------------------
G----------------------------9---7---6------------------
D-------------------------------------------10----9-----
A---------------------------------------------------------
E---------------------------------------------------------


E-------------------------------------------------------------------7---
B----7------------9-------------/10---10---10---10---------------
G----7------------9-------------/11---11---11---11----9b--------
D----------9---------------9-------------------------------------------
A------------------------------------------------------------------------
E------------------------------------------------------------------------

Loading...

Advertisement
When autoplay is enabled, a suggested video will automatically play next.

Up next


to add this to Watch Later

Add to

Loading playlists...