Loading...

Hot For Teacher Intro by VAN HALEN - Guitar Lesson - Eddie Van Halen

96,475 views

Loading...

Loading...

Transcript

The interactive transcript could not be loaded.

Loading...

Loading...

Rating is available when the video has been rented.
This feature is not available right now. Please try again later.
Published on Sep 14, 2012

My guitar lesson website: http://www.bobsguitarlessons.yolasite...

**TABS FOR THIS LESSON: http://jpst.it/Aeo8
Amazing rock guitar solo!! Hot For Teacher intro by Van Halen. Guitar lesson with step by step method with easy to follow tabs in the video.

TABS for this lesson available on my guitar lesson website: http://www.bobsguitarlessons.yolasite...
Facebook: https://www.facebook.com/BobbyCrispyG...
E-----------------------------------------------------------------------------
B-----------------------------------------------------------------------------
G-----------------------------------------------------------------------------
D-------------T--------------------------T--------------------------T-------
A----0-3-7-12-7-3- (x4)---0-5-9-12-9-5--(x3)---0-5-9-12-9---
E-----------------------------------------------------------------------------

E-----------------------------------------------------------------------
B-----------------------------------------------------------------------
G-----T--------------T-------------------------T----------------------
D----12----0-3-7-12-7-3-(x4)---0-5-9-12-9-5-(x4)---9----
A-----------------------------------------------------------------------
E-----------------------------------------------------------------------

E-------------------------------
B--------------T----------------
G----0-3-7-12-7-3-(x2)---
D-------------------------------
A-------------------------------
E-------------------------------

E-------------------------------
B--------------T-----------------
G----0-5-9-12-9-------------
D-------------------------------
A-------------------------------
E------------------------------- T T
E----12-5-8-12-8-7-5-----T-----------------------------
B----------------------------8-12-8-7-5-----T-------------
G--------------------------------------------8-12-8-7-5---
D---------------------------------------------------------------
A---------------------------------------------------------------
E---------------------------------------------------------------

E---------------------------------------
B---------------------------------------
G--------T-----------------------2----
D----8-12-8-7-5--------------2----
A---------------------8-7-5-0--0----
E---------------------------------------

E-----------------------------------------
B-----------------------------------------
G----5--4----1--2---1h2----1h2----
D----5--4----1--2---1h2----1h2----
A-----------------------------------------
E-----------------------------------------

E-----------------------------------------
B-----------------------------------------
G----10---7---4-----1---2---1h2----
D----10---7---4-----1---2---1h2----
A-----------------------------------------
E-----------------------------------------

E------------------------------------
B------------------------------------
G----5--4----1--2---1h2--------
D----5--4----1--2---1h2--------
A------------------------------------
E------------------------------------

E-------------------
B-------------------
G----2---2---2---
D----2---2---2---
A----2---2---2---
E----0---0---0---

Loading...

Advertisement
When autoplay is enabled, a suggested video will automatically play next.

Up next


to add this to Watch Later

Add to

Loading playlists...