Loading...

Norwegian Wood - mandolin lesson

33,953 views

Loading...

Loading...

Transcript

The interactive transcript could not be loaded.

Loading...

Loading...

Rating is available when the video has been rented.
This feature is not available right now. Please try again later.
Published on Oct 22, 2008

A lot of people have asked me for tabs to my version of Norwegian Wood. Since I don't know how to write tabs (I'm too lazy) I thought I'd show you how I play it instead.

The main theme of the song is the melody line, which you play while maintaining the G-chord (as shown on the video), then you go on to
Gm-C-Gm-Am7-D7. Then back to the main theme.

That's pretty much it. Good Luck!

EDIT:
Youtube user woolerman http://www.youtube.com/user/woolerman was nice enough to share some tabs he made for this song.

Norwegian Wood Mandloin

E----3--------------3---------------3-------------3-----
A----5---7--5--3--2---0--3--2--2-------3-----2----
D----0--------------0---------------5----3---2---0----
G----0--------------0---------------0-------------0---

then...
Gm - C - Gm - Am7 - D7 - main theme

E--3---3---3---3-----3------3---3---3---3-----3-----2----
A--1---0---1---0-----3------1---0---1---0-----3-----3----
D--0---0---0---0-----2------0---0---0---0-----2-----0----
G--0---0---0---0-----0------0---0---0---0-----2-----2----

  • Category

  • License

    • Standard YouTube License

Loading...

to add this to Watch Later

Add to

Loading playlists...