Upload

Loading...

PINK FLOYD - THE WALL - In the Flesh - Guitar Lesson

137,198 views

Loading...

Loading...

Loading...

Rating is available when the video has been rented.
This feature is not available right now. Please try again later.
Published on Apr 22, 2012

My guitar lesson website: http://www.bobsguitarlessons.yolasite...

**TABS FOR THIS LESSON: http://jpst.it/Aet4
Super easy song for beginner guitar players!! In the Flesh by Pink Floyd. Guitar lesson with step by step method with easy to follow tabs in the video.

TABS for this lesson available on my guitar lesson website: http://www.bobsguitarlessons.yolasite...
Facebook: https://www.facebook.com/BobbyCrispyG...
E-----------------------------------------------------------0-------
B----------------------------------------------8----3------0------
G----------------------------------------------7----2--------------
D--------------------------------------------------------------------
A-------------------------0-----2-----3----------------------------
E----0-----2-----3-------------------------------------------------

E--------------0-------------------------------------------------------------------------
B----------0-------3---(2 TIMES)---------------------------------------------------
G----2b----------------------------------2b--2--0------------------------------------
D--------------------------------------------------------2--0---------------------------
A-----------------------------------------------------------------2--1--0---------------
E------------------------------------------------------------------------------3b--0----

E---------------------------------------------------
B----3----5----6----5----3----5----6----8-----
G----2----4----5----4----2----4----5----7-----
D----0----0----0----0----0----0----0----0-----
A----------------------------------------------------
E----------------------------------------------------

E-----------------------------------------------------------------
B-----------------------------------------------------------------
G----------------------------------------------------------------
D----------------------------------------------------------------
A----0----2b----2----0-------------------4b----4-----2----
E-----------------------------2b----2--------------------------

E-----------------------------------------
B-----------------------------------------
G----------------------------------------
D----2-----------------------------------
A----0----2b----2----0----1----2----
E-----------------------------------------

E-----------------------------------
B-----------------------------------
G-----------------------------------
D-----------------------------------
A----4b----4----2----3----4----
E-----------------------------------

E-----------------------------------------------------------
B-----------------------------------------------------------
G----------------------------------------------------------
D----------------------------------------------------------
A----5bb----5----4-------------------------------------
E-------------------------0----0-0-0----0----0-0-0---

Loading...

Advertisement
When autoplay is enabled, a suggested video will automatically play next.

Up next


to add this to Watch Later

Add to

Loading playlists...