Loading...

Re: Jimmy Page - Kashmir chords

23,292 views

Loading...

Loading...

Loading...

Rating is available when the video has been rented.
This feature is not available right now. Please try again later.
Published on Sep 29, 2008

Main Riff:-
D|-------------------------------------------
A|-------------------------------------------
G|--2--2--2--3--3--3--4--4--4--5--5--5--7--7-
D|--0--0--0--0--0--0--0--0--0--0--0--0--0--0-
A|--5--5--5--5--5--5--5--5--5--5--5--5--5--5-
D|-------------------------------------------

Riff 2

D|--12--12--10--10--7--7--5--5--3--3--
A|--0---0---0---0---0--0--0--0--0--0--
G|--12--11--10---9---7--6--5--4--3--2--
D|--0---0---0---0---0--0--0--0--0--0---3-2-0
D|-----------------------------------------

Annotations are set out as E A D G B E (or in this case - DADGAD)

I can't play this very well (obviously), I've just learnt it.
This video is for all the people wanting tabs off my Jimmy Page video on my evilweed account, and to remind myself how to play it

Loading...

When autoplay is enabled, a suggested video will automatically play next.

Up next


to add this to Watch Later

Add to

Loading playlists...