Loading...

Paranoid Solo by BLACK SABBATH - Guitar Lesson - Toni Iommi

198,187 views

Loading...

Loading...

Transcript

The interactive transcript could not be loaded.

Loading...

Loading...

Rating is available when the video has been rented.
This feature is not available right now. Please try again later.
Published on Dec 17, 2011

My guitar lesson website: http://www.bobsguitarlessons.yolasite...
♫100 Popular Rock Riffs Guitar Lesson: https://youtu.be/EJSz2QxB5oo


**TABS FOR THIS LESSON: http://jpst.it/Afbw
How to play the classic solo from Paranoid by Black Sabbath! Guitar lesson with step by step method with easy to follow tabs in the video.


TABS for this lesson available on my guitar lesson website: http://www.bobsguitarlessons.yolasite...
Facebook: https://www.facebook.com/BobbyCrispyG...

E--------------------------------------------------------------------------------------------------------------
B--------------------------------------------------------------------------------------------------------------
G--------------------------------------------------------------------------------------------------------------
D---14b--12--14---14--12--14p12--------------------------------------------------------------------
A---------------------------------------------14/12---10h12--10h12------------------10-------------
E-----------------------------------------------------------------------------10h12--12-------12--12---

E--------------------------------------------------------------------------------------------------------------------------------------
B--------------------------------------------------------------------------------------------------------------------------------------
G-----------------------------------------------------12h14---14b-12---14b-12--14---12-------------12-------------------
D------------------------12h14---14---12h14--------------------------------------------------14--14--------14--14--14--
A---10/12--12h14-----------------------------------------------------------------------------------------------------------------
E--------------------------------------------------------------------------------------------------------------------------------------

E--------12-----------------------------------15b--15b--15b---15p12------15p12---------
B---/12------15---15b--15b---15--12-----------------------------------15------------15---
G----------------------------------------------------------------------------------------------------
D-----------------------------------------------------------------------------------------------------
A-----------------------------------------------------------------------------------------------------
E-----------------------------------------------------------------------------------------------------

E---------------------------12-------------------------------------------------------
B---15p12----------12-------15p12---------------------------------------------
G-------------14b------------------------14---14p12--------12--14b--12----
D------------------------------------------------------------14----------------------
A--------------------------------------------------------------------------------------
E--------------------------------------------------------------------------------------

E--------------------------------------------------------------
B--------------------------------------------------------------
G---14b---12h14h12-------12--------------------------
D---------------------------14-------14---14p12---------
A-------------------------------------------------------14---
E--------------------------------------------------------------

E-----------------------------------------------------------------------------------------------------
B-----------------------------------------------------------------------------------------------------
G--------------------------------------------------------------12-----------------------------------
D--------------------------------------------------------------------14-----------------------------
A---------12p10---12p10-------12/14--------------------------------------------------------
E---10------------------------12------------10--10/12---------------10----12--10---12---

Loading...

Advertisement
to add this to Watch Later

Add to

Loading playlists...