Loading...

BEATLES - Let It Be - Solo - Guitar Lesson ( 1 of 2 )

567,354 views

Loading...

Loading...

Transcript

The interactive transcript could not be loaded.

Loading...

Loading...

Rating is available when the video has been rented.
This feature is not available right now. Please try again later.
Published on Feb 26, 2009

♫Learn 100 Popular Rock Riffs Guitar Lesson: https://youtu.be/EJSz2QxB5oo
My guitar lesson website: http://www.bobsguitarlessons.yolasite...

**TABS FOR THIS LESSON: http://jpst.it/AetJ
How to play the solo from Let It Be by The Beatles. Guitar lesson with easy to follow step by step method with tabs in the video.

TABS for this lesson available on my guitar lesson website:
http://bobsguitarlessons.yolasite.com/
Part 2 of 2http://youtu.be/bcvT8yzXZnI

E--------------------------------------------------------------------------
B--------------------------------------------------------------------------
G--------------------------------------------------------------------------
D---------------------------------------------------5---7-5--------------
A---3---3---7-5---3--5--5-----------3-5--7--------------7-5--3---
E---------------------------------3-5------------------------------------

E---------------------------------------------------------------------------------------
B-----------------------------------10-8----------------------------------------------
G-----------------------5---7-9------------9-7---5--7--5--------------------------
D-------5-5-5-5--7--------------------------------------------7--5-----------------
A---7-----------------------------------------------------------------------7--5--3--
E---------------------------------------------------------------------------------------

E-----------------------------------------------------------------------------
B---------------------5-----------------------------8---10-8--------------
G------------------------7--5--7--------------9----------------9-7---5--
D-----------7--5--------------------7---5-7-------------------------------
A---5--3--------------------------------------------------------------------
E----------------------------------------------------------------------------

E-------------------8------------------12--10--8------------------------------------------
B------------------------10--8-----------------------10--8-----10-8---------------------
G-----------5--9------------------9---------------------------9----------9-7---5-7--5--
D---5--7-------------------------------------------------------------------------------------
A---------------------------------------------------------------------------------------------
E---------------------------------------------------------------------------------------------

Loading...

Advertisement
to add this to Watch Later

Add to

Loading playlists...