Loading...

Camp Rock 2 - Heart and soul [guitar cover]

37,790 views

Loading...

Loading...

Loading...

Rating is available when the video has been rented.
This feature is not available right now. Please try again later.
Published on Aug 15, 2010

Attention!!
Tune your guitar in D! [6th string one step down]
DADGBE

Sorry for showing up my legs O.O . That wasn't planned...

Tabs:
Main riff:
e--------------------------------------------------
B--------------------------------------------------
G--------------------------------------------------
D--------------------------------------------------
A--2--2--0--1--2--------------------------------
D--------------------0--1--2--2--0--1--2--0--

Verse:
Bm and something like Em but a string higher.
e--------
B--------
G--------
D--------
A---2----
D---2----

"But if you can jump..."
e----------------
B-----------------
G-----------------
D---4-----7-----
A----4-----7-----
D---4-----7------

"If you've got..."
Bm than do this on 6th string
D--2--3--4----

I'm not sure sbout a brigde so here's only 1st verse and chorus. Hope it helped ;)

  • Category

  • License

    • Standard YouTube License

Loading...

When autoplay is enabled, a suggested video will automatically play next.

Up next


to add this to Watch Later

Add to

Loading playlists...