Loading...

FORTUNATE SON - CCR - Guitar Lesson ♫ ♪ ♫ ♪

275,163 views

Loading...

Loading...

Transcript

The interactive transcript could not be loaded.

Loading...

Loading...

Rating is available when the video has been rented.
This feature is not available right now. Please try again later.
Published on Aug 5, 2012

My guitar website: http://www.bobsguitarlessons.yolasite...

**TABS FOR THIS LESSON: http://jpst.it/Aemc
Popular song by CCR, Fortunate Son. Guitar lesson with step by step method with easy to follow tabs in the video.

TABS for this lesson available on my guitar lesson website:
http://www.bobsguitarlessons.yolasite...
Facebook: https://www.facebook.com/BobbyCrispyG...

E---------------------------------------------------------------------
B--------8----------6----------------5------------3----------------
G---------------------------------------------------------------------
D----/9--------/7------------3/5-----------2/3--------------------
A----------------------------------------------------------1----------
E----------------------------------------------------------------3----

G, F, C, G
E----------------------------------
B----------------------------------
G-------------------5-------------
D----5------3------5------5-----
A----5------3------3------5-----
E----3------1--------------3-----

G, D, C, C
E-----------------------------------
B-----------------------------------
G-----------7-----5---------------
D----5-----7-----5-----5---------
A----5-----5-----3-----5---------
E----3-------------------3---------

E--------------------------------------
B----/6-----5------\1------1/3-----
G----/7-----6------\2------2/4-----
D--------------------------------------
A--------------------------------------
E--------------------------------------

Loading...

Advertisement
When autoplay is enabled, a suggested video will automatically play next.

Up next


to add this to Watch Later

Add to

Loading playlists...