Upload

Loading...

Simon and Marcy~ ADVENTURE TIME~ "Dear Marceline"

412,712

Loading...

Loading...

Loading...

Rating is available when the video has been rented.
This feature is not available right now. Please try again later.
Published on Mar 8, 2013

I wrote this song based on the story in Adventure Time. The final words of Simon Petrikov.
Art Credits (DeviantArt):
http://soulharlequin15.deviantart.com/
http://dokifanart.deviantart.com/
Instrumental Version: http://www.youtube.com/watch?v=OZdY2U...
LYRICS:
Dear Marceline,
It's been so long since I last saw you.
I've waited by the portal where you disappeared every day,
just hoping and praying that someday you would return to me.
But I'm afraid I'm running out of time,
so I've written you these letters in the hope that
someday you would read them, and remember me.
Love, Simon

Dear Marceline,
What did you mean,
that you're the queen of a world
that I've never seen?
A land made of fire
and darkness, that's not of this world.
Is that a safe place, for my little girl?

Dear Marceline,
The world has changed so much since you left.
There's hardly anything left besides me.
But I've discovered something truly remarkable!
With this crown, I can freeze and un-freeze living things!
Maybe I can preserve them... maybe, I can save this world.

Dear Marceline,
This is goodbye.
Please don't cry.
When I put on this crown, I will die.
Oh Marceline, please remember me.
You'll be all right, I promise.
Love,
Simon

TABS:
E---------------------------------------­------------------------
B-------7--7--------7--7----------7--7--­---------7--7-----
G-------7--7--------7--7----------6--6--­---------6--6-----
D---9-----------9--------------7--------­------7--------------
A---------------------------------------­------------------------
E---------------------------------------­-------------------------

E---------------------------------------­-----------------------
B-------7--7----------5--5------------5-­-5--------3--3---
G-------4--4----------4--4------------4-­-4--------4--4---
D--5-------------5--------------4-------­-------4-----------
A---------------------------------------­-----------------------
E---------------------------------------­-----------------------

E---------------------------------------­-----------------------
B-------3--3----------2--2------------7-­-7--------7--8---
G-------3--3----------3--3------------8-­-8--------8--8---
D--4-------------4--------------7-------­-------7-----------
A---------------------------------------­-----------------------
E---------------------------------------­-----------------------

E---------------------------------------­-------------------------
B-------8--8----------8--8------------7-­-7--------7--7-----
G-------9--9----------9--9------------7-­-7--------7--7-----
D--------------------------------9------­---------9--------------
A---7-------------7---------------------­------------------------
E---------------------------------------­--------------------------

E-----------------------------9---
B-------11----11---------11---
G-------9------9-----------9----
D-------11----11--------11---- REPEAT ALL (THREE TIMES TOTAL)
A---9----------------------9-----
E----------------------------------
TABS FOR FINAL ("Dear Marceline, this is good bye...")
E---------------------------------------­------------------------
B-------7--7--------7-------------5--5--­---------5---------
G-------7--7--------7-------------7--7--­---------6---------
D---9-----------9--------------7--------­------7--------------
A---------------------------------------­------------------------
E---------------------------------------­-------------------------

E---------------------------------------­-----------------------
B-------7--7----------5---------------5-­-3----2-----------
G-------4--4----------4---------------3-­-3----3-----------
D--5-------------5--------------4-------­-------4-----------
A---------------------------------------­-----------------------
E---------------------------------------­-----------------------

E---------------------------------------­------------------------
B-------7--7--------7--7----------5--5--­---------5--5-----
G-------7--7--------7--7----------7--7--­---------6--6-----
D---9-----------9--------------7--------­------7--------------
A---------------------------------------­------------------------
E---------------------------------------­-------------------------

E---------------------------------------­-----------------------
B-------7--7----------5--5---------2--3-­-2---------------
G-------4--4----------4--4---------3--3-­-3---------------
D--5-------------5--------------4-------­-------4-----------
A---------------------------------------­-----------------------
E---------------------------------------­-----------------------

E-----------------7-----9---
B-------------7-------------
G--------7------------------
D----9-----------------------
A-----------------------------
E------------------------------ =) If you have any questions feel free to message me!

  • Category

  • License

    • Standard YouTube License

Loading...

When autoplay is enabled, a suggested video will automatically play next.

Up Next


to add this to Watch Later

Add to

Loading playlists...