Loading...

Fontella Bass _ rescue me (bass cover + tab )

4,226 views

Loading...

Loading...

Loading...

Rating is available when the video has been rented.
This feature is not available right now. Please try again later.
Uploaded on Oct 18, 2011

NO COPYRIGHT INFRINGEMENT INTENDED
- - - - - - - - - - COPYRIGHT - - - - - - - - - -
I own nothing used in this video and do not claim it as my own
This video is purely for entertainment purposes and should be used for private entertainment only
- - - - - - - - - - COPYRIGHT - - - - - - - - - -
Copyright Disclaimer Under Section 107 of the Copyright Act 1976, allowance is made for "fair use" for purposes such as criticism, comment, news reporting, teaching, scholarship, and research. Fair use is a use permitted by copyright statute that might otherwise be infringing. Non-profit, educational or personal use tips the balance in favor of fair use.

So if you are a big major and want this video removed send me a mail...

if you want links tab http://www.911tabs.com/link/?3672902

or copypaste texte below ( use Courrier new )
Intro:

G|-----------------------|--------------|
D|-----------------------|--------------|
A|-12h9----9-12--9----12-|-12-9-12----9-| x4
E|------12---------12----|---------12---|

G|--------------|------|
D|-12-11-9-7----|------|
A|-----------7~-|7(x7)-|
E|-----------0~-|------|


Verse:

G|-2-2-----2-2-----|------2-------2|----------------|-----------------|
D|-----4-2-----4-2-|----4-------4--|-5-5-----5-5----|-2-2-----2-2-----|
A|-----------------|5-5-----5-5----|-----2-5-----2-5|-----2-5-----2-5-|
E|-----------------|---------------|----------------|-----------------|
x2

Chorus:

G|-2-2-----2-2-----------2-------2-|
D|-----4-2-----4-2-----4-------4---|
A|-----------------5-5-----5-5-----| x3
E|---------------------------------|

G|-7-6-4------|-------|
D|-------7----|-------|
A|---------7~-|-7(x7)-|
E|---------0~-|-------|

Verse

Chorus

Intro

Verse


Chorus: (Modified I)

G|-2-2-----2-2-----------2-------2-|
D|-----4-2-----4-2-----4-------4---|
A|-----------------5-5-----5-5-----|
E|---------------------------------|

G|-2-2-----2-2-----------2-------4-|
D|-----4-2-----4-2-----4-------4---|
A|-----------------5-5-----5-5-----|
E|---------------------------------|

G|-2-2-----2-2-----------2-------2-|
D|-----4-2-----4-2-----4-------4---|
A|-----------------5-5-----5-5-----|
E|---------------------------------|

G|-7-6-4------|-------|
D|-------7----|-------|
A|---------7~-|-7(x7)-|
E|---------0~-|-------|



Chorus: (Modified I)


Chorus: (Modified II)

G|-2-2-----2-2-----------2-------4-|
D|-----4-2-----4-2-----4-------4---|
A|-----------------5-5-----5-5-----|
E|---------------------------------|

G|-2-2-----2-2-----------2-------4-|
D|-----4-2-----4-2-----4-------4---|
A|-----------------5-5-----5-5-----|
E|---------------------------------|

G|-2-2-----2-2-----------2-------2-|
D|-----4-2-----4-2-----4-------4---|
A|-----------------5-5-----5-5-----|
E|---------------------------------|

G|-7-6-4------|-------|
D|-------7----|-------|
A|---------7~-|-7(x7)-|
E|---------0~-|-------|


End:

G|-2-2-----2-2-----------2-------2-|
D|-----4-2-----4-2-----4-------4---|
A|-----------------5-5-----5-5-----|
E|---------------------------------|

G|-2~------2-2-----------2-------4-|
D|-----4-2-----4-2-----4-------4---|
A|-----------------5-5-----5-5-----|
E|---------------------------------|

G|-2-2-----2-2----------------------|
D|-----4-2-----4-2------------------|
A|-----------------5-5-4-4-3-3-2-2--|
E|----------------------------------|

G|-7-6-4---------------------------|
D|-------7-----------9-7-7-----7-7-|
A|---------7-7-7-777-------9-7-----|
E|---------------------------------|

Loading...

When autoplay is enabled, a suggested video will automatically play next.

Up next


to add this to Watch Later

Add to

Loading playlists...