Loading...

'Puscifer - Momma Sed' on acoustic guitar

86,070 views

Loading...

Loading...

Loading...

Rating is available when the video has been rented.
This feature is not available right now. Please try again later.
Published on Nov 4, 2007

Ok so heres the tab, im sorry it took so long. Certain changes have indeed come and i hardly use my computer anymore.

***NOTE*** This is only how I play the song, its not the official way. I just learn t it by ear.

Enjoy learning the best song off the album.

Drop D Standard.

Introduction

E------------------------------------------
B------------------------------------------
G--0h1p0-------------------------------
D------------3-1-3--1-3-1p0----------
A---------------------------------1-3----
D--------------------------------------6--

Verse - Listen out for the Rhythm

E-------------------------------
B-------------------------------
G-------------------------------
D-3-x-1-1-1-1-1-h-3--x--1-1
A-3-x-1-1-1-1-1-h-3--x--1-1
D-3-x-1-1-1-1-1-h-3--x--1-1

Break

E-----------------------------
B-----------------------------
G-1-x-1-1-1-1-1-1-------
D-1-x-1-1-1-x-1-1-------
A-1-x-1-1-1-x-1-1-------
D-1-x-1-1-1-x-1-1-------

Chorus ('Changes come...') - Listen for Rhythm

E--------------------------
B--------------------------
G-5--//--8--//--3--//--5
D-3--//--6--//--1--//--3
A-3--//--6--//--1--//--3
D-3--//--6--//--1--//--3

Loading...

Advertisement
When autoplay is enabled, a suggested video will automatically play next.

Up next


to add this to Watch Later

Add to

Loading playlists...