Loading...

THE RAIN SONG - Led Zeppelin ( 3 of 3 ) Guitar Lesson - Jimmy Page

91,137 views

Loading...

Loading...

Transcript

The interactive transcript could not be loaded.

Loading...

Loading...

Rating is available when the video has been rented.
This feature is not available right now. Please try again later.
Published on Jun 4, 2010

**TABS FOR THIS LESSON: http://jpst.it/Afdg
Free guitar lessons www.bobsguitarlessons.yolasite.com
D----/9----9-----9--7------7-----5---------5----7-------5---5---5--4------4-------4------4---5---
C----/7----7-----7-----7---5-----5---------5-------------4---4---4-----4---2---2------2-------4---
G----/7----7-----7----------5-----5---7----5-------------4---4---4----------2---2------2-------4---
C----/7----7-----7----------5-------------------------------0---0---0-------------------------------0---
G----0-----0-----------------0-------------------------0------------------------4---4-------4------------
D--------------------------------------------------------------------------------------------------------------


D----7---7----7-----8----10----8--10----8--10-----12\--------------------0--------------
C----5---5----5-----7----8------8---------8--------------------------------5-----5----5-----
G----5---5----5-----7----8------8---------8----------------------------6------------6--------
C------------------------------------------------------------------------7--------------------------
G----7---7----7-----8----10--------------------------------------0-----------------------------
D----------------------------------------------------------------------------------------------------

D--------------------0----------------7p5--------5-----2p0-------------5p3------3----------
C----------------5------5-----5------------6------------------0---0-----------4--4---4-------
G------------6-------------6------------------7------------------0---------------5-------5-----
C--------7----------------------------0------------------0-----------------0---------------------
G----0---------------------------------------------------------------------------------------------
D---------------------------------------------------------------------------------------------------

D-------------0------------0-----------0---------0-------------0-----
C----------5------------4-----------2----2---2---------------2------
G-------0------------0-----------0---------0----------------2--------
C-------------------------------------------------------------2---------
G----5------------4-----------2---------------------------0-----------
D----------------------------------------------------------0-------------

Song Structure:
RIFFS: 1, 2, 3 (x3), 4, 5, 1, 2, 3 (x3), 4, 5 (variation), 1, 2, 3 (x4), 4, 5, 6 (x4), 3 (x4), 4, 7

Loading...

Advertisement

to add this to Watch Later

Add to

Loading playlists...