Loading...

METALLICA - EASY RIFF ( Intro to ONE ) - Guitar Lesson

531,859 views

Loading...

Loading...

Transcript

The interactive transcript could not be loaded.

Loading...

Loading...

Rating is available when the video has been rented.
This feature is not available right now. Please try again later.
Uploaded on Jun 20, 2008

♫Learn 100 Popular Rock Riffs Guitar Lesson: https://youtu.be/EJSz2QxB5oo

**TABS FOR THIS LESSON: http://jpst.it/Afbn
Free guitar lessons www.bobsguitarlessons.yolasite.com
E-----------------------
B-----------------------
G-----------------------
D--------4--------0----
A---2--------2---------
E-----------------------

E-----------------------------
B-----------------------------
G-----------------------------
D-------------4---------0----
A-----------------------------
E------3----------3----------

E-----------------------------
B-----------------------------
G-----------------------------
D-----------4-----------0----
A----2-----------2-----------
E-----------------------------

E----------------------------------
B----------------------------------
G-----------------------------0---
D----------4------------0--------
A----------------------------------
E----3-----------3----------------

E-----------------------------
B-----------------------------
G-----------------------------
D-----------4-----------0----
A----2-----------2-----------
E-----------------------------

E------------------------------
B------------------------------
G------------------------------
D--------4---------0----------
A---0--------0----------------
E-------------------------------

E------------------------------
B------------------------------
G------------------------------
D--------4----------0---------
A------------------------------
E---3---------3--------------

E------------------------------
B------------------------------
G------------------------------
D-----------------------------
A--------2----------2-------
E---0--------2---------------

Loading...

Advertisement
to add this to Watch Later

Add to

Loading playlists...