YouTube home National Registration Day
Upload

Loading...

LED ZEPPELIN - Good Times Bad Times - Guitar Lesson

183,045 views

Loading...

Loading...

Transcript

The interactive transcript could not be loaded.

Loading...

Loading...

Rating is available when the video has been rented.
This feature is not available right now. Please try again later.
Uploaded on Aug 31, 2008

♫Learn 100 Popular Rock Riffs Guitar Lesson: https://youtu.be/EJSz2QxB5oo

**TABS FOR THIS LESSON: http://jpst.it/AemL
my guitar lesson website:
http://www.bobsguitarlessons.yolasite...
E----------------
B----9----9----
G----9----9----
D----9----9----
A----7----7----
E----0----0----

E-----------------------------------------------------------------
B----9----9-----------------------------------------------------
G----9----9-------------7------7------------------------------
D----9----9---------7------7------7-------4--7--------------
A----7----7----5-----------------------5-----------4--5--6--
E----0----0-----------------------------------------------------

E-------------------------------------------------
B-------------------------------------------------
G--------------11--9--11------4--2--4--2---
D--------------11--9--11------4--2--4--2---
A----4---4--------------------------------------
E----2---2--------------------------------------

Loading...

Advertisement
to add this to Watch Later

Add to

Loading playlists...