Loading...

Guitar Lesson - LED ZEPPELIN - Black Dog - ( 1 of 2 ) With Printable Tabs! )

268,960 views

Loading...

Loading...

Loading...

Rating is available when the video has been rented.
This feature is not available right now. Please try again later.
Published on Apr 3, 2009

♫Learn 100 Popular Rock Riffs Guitar Lesson: https://youtu.be/EJSz2QxB5oo
My guitar lesson website: http://www.bobsguitarlessons.yolasite...

**TABS FOR THIS LESSON: http://jpst.it/AeiA
How to play Black Dog by Led Zeppelin. Guitar lesson with step by step method with easy to follow tabs in the video.

TABS for this guitar lesson available on my guitar lesson website:
http://bobsguitarlessons.yolasite.com/

Part 2 of 2 http://youtu.be/_9_TOFBd2jU
E-------------------------------------------------------------------------------------------------
B----------------------------------5-------------------------------------------------------------
G---------------------7------7-------5-7-5----------5-----------------------------------2---
D-------5-6-7-----------7--------------------7-7--------7--5--7-7--------------------2---
A---7-------------7-------------------------------------------------------5--7--------5--0---
E------------------------------------------------------------------------------------8-----------

E----------------------------------------------------
B----------------------------------------------------
G---------------------------------------------------
D-----------------------5---------------------------
A-------5--6--7----------7--------5-6-7--5----
E---7--------------7------------7-----------------

E-----------------------------------
B-----------------------------------
G----------------4(B)-2-4-2----
D-----------------------------------
A---3(B)--0----------------------
E-----------------------------------

E--------------------------------------------------------------------------------
B--------------------------------------------------------------------------------
G-----------------4(B)-2-4-2----------------2---5---3----2--4(B)--------
D-----------------------------------------------2---5---3----------------4--2-
A---3(B)--0-----------------------3(B)--0--0---3---0----------------------
E---------------------------------------------------------------------------------

E---------------------------------------5--
B-------------------------------------------
G---------------------2------2---4(B)---
D--------------2--4------4----------------
A---0---3-4-------------------------------
E-------------------------------------------

E-----------------------------------
B-----------3----------------------
G---5(B)------5-4-2-----2--4--
D------------------------4---------
A-----------------------------------
E-----------------------------------

E-------------------------------------------------------------3---2--
B-------------------------------------------------------------3---3--
G-------------------------------------------------------------0---2--
D---2-------2-------2-----------5--2---2---------2-------0---0--
A---0-------0-------0-----------3--0---0---------0-------2-------
E------2-3------2-------4-5----------------2-3-------3---3------

Loading...

Advertisement
When autoplay is enabled, a suggested video will automatically play next.

Up next


to add this to Watch Later

Add to

Loading playlists...