Loading...

DUST IN THE WIND - Kansas - Guitar Lesson

373,699 views

Loading...

Loading...

Transcript

The interactive transcript could not be loaded.

Loading...

Loading...

Rating is available when the video has been rented.
This feature is not available right now. Please try again later.
Published on Jun 28, 2012

My guitar lesson website: http://www.bobsguitarlessons.yolasite...

**TABS FOR THIS LESSON: http://jpst.it/Aek-
Amazing acoustic guitar arrangement!! Dust in the Wind by Kansas. Guitar lesson with step by step method with easy to follow tabs in the video.

TABS for this lesson available on my guitar lesson website: http://www.bobsguitarlessons.yolasite...
Facebook: https://www.facebook.com/BobbyCrispyG...
C, Cmaj7, C add9, C
E--------------------------------
B----1----- 0-----3-----1-----
G----0-----0-----0-----0------
D----2-----2-----2-----2------
A----3-----3-----3-----3------
E--------------------------------

Am add9, Asus4, Am, Am add9
E----------------------------------
B----0-----3-----1-----0--------
G----2-----2-----2-----2-------
D----2-----2-----2-----2-------
A----0-----0-----0-----0-------
E---------------------------------

C add9, C, Cmaj7, C add9
E--------------------------------
B----3-----1-----0-----3------
G----0-----0-----0-----0------
D----2-----2-----2-----2------
A----3-----3-----3-----3------
E--------------------------------

Am, Am add9, Asus4, Am
E--------------------------------------
B----1-----0-----3-----1------------
G----2-----2-----2-----2------------
D----2-----2-----2-----2------------
A----0-----0-----0-----0---0--2----
E--------------------------------------

Verse

C, G/B, Am, Am
E--------------------------------
B----1-----3-----1-----1------
G----0-----0-----2-----2------
D----2-----0-----2-----2------
A----3-----2-----0-----0------
E--------------------------------

G, Dm, Am, Am
E-----------1----------------------------
B----3-----3------1-----1--------------
G----0-----2------2-----2-------------
D----0-----0------2-----2-------------
A------------------0-----0----0--2----
E----3----------------------------------

Repeat Verse

Chorus
D/F#, G, Am, Am/G
E-------------------------------
B----3-----3-----1-----1-----
G----2-----0-----2-----2-----
D----0-----0-----2-----2-----
A-----------------0------------
E----2-----3------------3-----

D/F#, G, Am, Am, G/B
E----------------------------------------------------------
B----3-----3-----1-----------------------0h1-----3----
G----2-----0-----2----(CHORDS)-------2-----0----
D----0-----0-----2--------------------------2-----0----
A-----------------0--------------------------0------2----
E----2-----3----------------------------------------------

Violin Solo Chords ( Starting at 1:20 )

E------------------------------------------------------------
B----0----0------0----0-------0----0------3----0-------
G----5----5------7----7------5----5------5----5-------
D----7----7------5----5------3----3------3----3-------
A----0----0------0----0------0----0------0----0--------
E-----------------------------------------------------------
Repeat 3 Times

Intro

Verse

Chorus ( x4 )

Ending ( Repeat )

Am, Am add9, Asus4
E------------------------------
B----1-------0-------3-------
G----2-------2-------2-------
D----2-------2-------2-------
A----0-------0-------0-------
E------------------------------

Loading...

Advertisement
When autoplay is enabled, a suggested video will automatically play next.

Up next


to add this to Watch Later

Add to

Loading playlists...