Loading...

Bakit ba - Siakol (Adlibs)

338,066 views

Loading...

Loading...

Loading...

Rating is available when the video has been rented.
This feature is not available right now. Please try again later.
Published on Mar 20, 2007

Bakit ba: (chorus) tabs

-7-----8-7------
---8-------8----
-----7-------7--
----------------
----------------
----------------


---7-----7------
-----8----8-----
-9-----9----9---
----------------
----------------
----------------


-----------------
-8------10-8-----
---9---------9---
-----10--------10
-----------------
-----------------


--------------------
-10------12-10------
---11----------11---
------12----------12
--------------------
--------------------




Check this tabs for the solo..


Bakit ba: Solo: Tabs

Lick # 1




-------------------------5---5 hammer on to 7---
------------------5-7-8--- 8---------------------
-----------4-5-7------------------------ --------
-------5-7------------------------------ --------
---------------------------------------- --------
---------------------------------------- --------

Lick # 2

---7-5--- 5--------------------------------------
-------8---8-7-8-7-5-7-8 slide to 10-------------
---------------------------------------- --------
---------------------------------------- -------
---------------------------------------- -------
---------------------------------------- --------

Lick # 3

-------10-8-7-10-8-7-------------------- --------
----------------------10-8-10-8-7 hammer on to 8-
---------------------------------------- --------
---------------------------------------- --------
---------------------------------------- --------
---------------------------------------- --------

Lick # 4

---------------------------------------- --------
--------7-8-10-8-7-------7 hammer on to 8--10----
---7-9--------------- 9-7-9----------------------
---------------------------------------- --------
---------------------------------------- --------
---------------------------------------- --------

Lick # 5

--10-8-7-8---10-8-7------10-8-7-8--- 10-8-7------
-----------8--------8-10----------8 ---------8-10
---------------------------------------- --------
---------------------------------------- --------
---------------------------------------- --------
---------------------------------------- --------

continuation of lick # 5

-------------------12-10-9-10-9--------- --------
-10 slide to 12-12--------------12-12 bend up--10
---------------------------------------- --------
---------------------------------------- --------
---------------------------------------- --------

  • Category

  • License

    • Standard YouTube License

Loading...

Advertisement
When autoplay is enabled, a suggested video will automatically play next.

Up next


to add this to Watch Later

Add to

Loading playlists...