Loading...

Children of the Grave by BLACK SABBATH - Guitar Lesson - Tony Iommi

179,789 views

Loading...

Loading...

Transcript

The interactive transcript could not be loaded.

Loading...

Loading...

Rating is available when the video has been rented.
This feature is not available right now. Please try again later.
Published on Dec 4, 2009

My guitar lesson website: http://www.bobsguitarlessons.yolasite...
♫ Learn 100 Popular Rock Riffs Guitar Lesson: https://youtu.be/EJSz2QxB5oo

**TABS FOR THIS LESSON: http://jpst.it/Aej5
Super heavy guitar riffs in this song by Black Sabbath, Children of the Grave. Guitar lesson with step by step method with easy to follow tabs in the video.

TABS for this lesson available on my guitar lesson website: http://www.bobsguitarlessons.yolasite...
Facebook: https://www.facebook.com/BobbyCrispyG...
E-------------------------------------------------------
B-------------------------------------------------------
G-------------------------------------------------------
B-------------------------------------------------------
F#-------------------------------------------10--8---
C#---0---0---0--0--0--( 3 TIMES )---8---7---

E-----------------------------------------------------------------------------
B-----------------------------------------------------------------------------
G-----------------------------------------------------------------------------
B-----------------------------------------------------------------------------
F#---12-14-----15-17---10-10---10-10-----12--12----12--12---
C#---10-12----13-15----8---8-----8---8-----10--10----10--10----

E------------------------------------------------------
B------------------------------------------------------
G------------------------------------------------------
B------------------------------------------------------
F#------------------------------------------------5---
C#---0---0---0--0--0--( 3 TIMES )---0---3---


E-----------------------------------------------------------------
B-----------------------------------------------------------------
G-----------------------------------------------------------------
B------------------------------2----------------------2---------
F#----------0--2p0--1h2---------------0--1h2------1-0---
C#---0h3---------------------------0h3-----------------------

E-----------------------------------------------------------------------------------
B-----------------------------------------------------------------------------------
G-----------------------------------------------------------------------------------
B------------------------------------------------------------------------------------
F#------------------9--8----8--9----11-12----------------12-11--11--12--
C#---0--/3---0---/7--6----6--7---/9-10----0--3--0---/10-9----9---10---


E-----9-----9----11----11----12---12----13----13---14---/15----
B-----12b-------14b----------15b---------16b---------17b---------
G---------------------------------------------------------------------------
B---------------------------------------------------------------------------
F#--------------------------------------------------------------------------
C#--------------------------------------------------------------------------

RIFFS: 1, 1, 2, 1, 1, 2, 1, 1, 3 (x8), 2, 1, 1, 3 (x8), 2, 4 (x4), 5, 5, 1, 1, 2, 1, 1, 3 (x8), 2, (solo), 2, 6 (x3)

Loading...

Advertisement
to add this to Watch Later

Add to

Loading playlists...