Upload

Loading...

Har ek friend kamina hota hai-(TAB ONLY)-CHASHME BADDOOR (2013)

688 views

Loading...

Loading...

Loading...

Rating is available when the video has been rented.
This feature is not available right now. Please try again later.
Published on Feb 23, 2013

Here are the GUITAR TABS for the song "Har Ek Friend Kameena Hota Hai" from the upcoming movie "CHASHME BADDOOR".

02T320---------------02320--------------02T320----------------02320----(G String)
Hatte Katte____Ullu ke patte____Ek hi thali ke____Chatte batte

--020--------------------020------------------------------------------------(G String)
4-----4-----------------4----4-----------11111--------------1310-------(D String)
Sale nikhattu____Bajarbattu__Aaaye bala to__taal tu

02T320---------------02320----------------02T320----------------02320--(G String)
Aage se buddy__Peeche se kati__Panga liya to____Maar de kalti

--020----------------------020----------------------------------------------------------------(G String)
4-----4--------------------4----4-----------------------11111-------------------1310-----(D String)
Muft ka chandan__Ghis mere nandan___Maal bacha ke____Bhaag tu

----111----------------------14-------------43-------------111------------------------------14-43---(B String)
023-------------------------------------------------------023----------------------------------------------(G String)
Upar se bolte hain__What's up_ buddy__Neeche se kheenchte hain__Chaddi Chaddi

-----3------------1T31-----------------------------------------------------------------------------------(E String)
333-------------------------31---------1------------------2T3X3-------------------------------------(B String)
-----------------------------------------3--32------------------------------------002------------0--0--(G String)
-------------------------------------------------------------------------------------------------------4----(D String)
Saala izzat__Utar__Neko__Always ready__Har ek friend__Kameena__Hota hai

333--------2T3X3--------------------------------------------------(B String)
------------------------------------002--------------0--0------------(G String)
---------------------------------------------------------4-------------- (D String)
Bole to__ Har ek friend__Kameena__Hota hai

-------111--1343----------111----------------------------(B String)
023-------------------023--------333--222 0------------(G String)
MUSIC

3413-------------3413-------------3431--------------------------------1---------(B String)
-----------------------------------------------------------32-------------23-----------(G String)
Kal raat ko__Khidki khuli__Taaron tale__Thi woh___Gulchadi

3413-------------3413---------------3431----------------------------------1--------(B String)
----------------------------------------------------------------32-------------23---------(G String)
Naina mile__Taanke bhide__Bhoole bhula__oon naa___Woh ghadi

----32--------------------------34---------23532-------------------------------------------(E String)
13--------------------13----------------------------------------------331------------13----(B String)
-----------------------------------------------------------------------------------------3-------(G String)
Phir kya karoon_Rou_ Hassu__Yaar ke gale se__ Lagee thi__Woh Khadi

2T3X3--------------------------------------------------------2T3X3----------------------------------(B String)
---------------------002-------------0--0--------333----------------------------002----------0-0--(G String)
-----------------------------------------4------------------------------------------------------------4----(D String)
Har ek friend__Kameena__Hota hai_Bole to_ Har ek friend_Kameena_Hota hai

-----1---------------111-------------343-----------------1--------------111------------343---------(B String)
023----------------------------------------------------023-----------------------------------------------(G String)
Har ek friend__Kameena__Hota hai___ Har ek friend__Kameena__Hota hai

-313-------------------------------------------------(E String)
3--------------------331--------------1------------ (B String)
---------------------------------------3--2-----------(G String)
Har ek friend__Kameena__Hota hai

----1-----------------1-----------------------1-----------------1----------------------(B String)
023-32---020---023-32---02--0-------023-32--020---023---32--02-0--(G String)
---------------4------------------4-----------------------4-----------------4----------(D String)
MUSIC

----------------------3333---------------(E String)
---------------3333----------------------(B String)
0000--3333----------------------------(G String)
MUSIC

  • Category

  • License

    • Standard YouTube License

Loading...

Advertisement
When autoplay is enabled, a suggested video will automatically play next.

Up next


to add this to Watch Later

Add to

Loading playlists...