Loading...

Beck - Lost Cause (cover)

47,804 views

Loading...

Loading...

Loading...

Rating is available when the video has been rented.
This feature is not available right now. Please try again later.
Published on Nov 6, 2006

My bathroom in Seoul, South Korea 2006. Cort Parkwood 310-R.

I have played this very incorrectly in my video. Beck doing it the way it's supposed to be done here:
http://www.youtube.com/watch?v=vqNuL7...

Copy and paste this text in Notepad to see it properly (or set to Courier New in Microsoft Word):

Fmaj7 C C/B

-----------0------|---------|-----------
-------1----------|-------1-|-------1---
---2-----------2--|---0-----|---0-------
-----3-------3----|-----2---|-----0-----
------------------|-3-------|-2---------
-1-------1--------|---------|-----------

I do the weird A chord like this:

A*

-5-----3---3----|
-2-----2---2----|
----------------|
-----2-------2--|
-0-------0------|
----------------|

To do the finger position, put your index finger on the 2nd fret, middle finger on the 3rd fret and pinky on the 5th fret. X means no fingers touch. Like this:
2 3 5
2 x x
2 x x
2 x x
x x x
x x x

Loading...

Advertisement
When autoplay is enabled, a suggested video will automatically play next.

Up next


to add this to Watch Later

Add to

Loading playlists...