Loading...

Rock n' Roll by LED ZEPPELIN - Guitar Lesson - Jimmy Page

243,167 views

Loading...

Loading...

Transcript

The interactive transcript could not be loaded.

Loading...

Loading...

Rating is available when the video has been rented.
This feature is not available right now. Please try again later.
Uploaded on Nov 20, 2009

My guitar lesson website: http://www.bobsguitarlessons.yolasite...
♫ Learn 100 Popular Rock Riffs Guitar Lesson: https://youtu.be/EJSz2QxB5oo

**TABS FOR THIS LESSON: http://jpst.it/AgJ-
How to play the classic rock song Rock and Roll by Led Zeppelin. Guitar lesson with step by step method with easy to follow tabs in the video.

TABS for this lesson available on my guitar lesson website: http://www.bobsguitarlessons.yolasite...
Facebook: https://www.facebook.com/BobbyCrispyG...
E------------------------------------------------------------
B------------------------------------------------------------
G------------------------------------------------------------
D----2--------2----5p2--4---------------2--2--4--2----
A----0---4---------------------3----0----0--0--0--0----
E------------------------------------------------------------



E------------------------------------------------------------
B------------------------------------------------------------
G----2--------2----5p2--4---------------2--2--4--2----
D----0---4---------------------3----0----0--0--0--0----
A------------------------------------------------------------
E------------------------------------------------------------


E------------------------------------------------------------
B------------------------------------------------------------
G------------------------------------------------------------
D------------------------------------------------------------
A----2--------2----5p2--4---------------2--2--4--2----
E----0---4---------------------3----0----0--0--0--0----

E----------------------------------------------------------
B----------------------------------------------------------
G----------------------------------------------------------
D--------2---------------------------2------2------------
A--------0---( 3 TIMES )--------0------0------------
E----3---------------------------3-------3-------3p0---


E----------------------------------------------------------
B----------------------------------------------------------
G--------2---------------------------2------2------------
D--------0---( 3 TIMES )--------0------0------------
A----3---------------------------3-------3-------3p0---
E-----------------------------------------------------------


E-----------------------------------------------
B-----------------------------------------------
G-----------------------------------------------
D----9--9--11--9--( 4 TIMES )-----7---
A----7--7--7---7------------------------5---
E-----------------------------------------------

E-----------------------
B-----------------------
G----12--12--11----
D----11--11--10----
A-----------------------
E-----------------------

E-----------------------
B-----------------------
G----13--13--12----
D----10--10--11-----
A-----------------------
E-----------------------

E-------------------------
B-------------------------
G----12--12------------
D----11--11----12-----
A-------------------------
E-------------------------

E------------------------
B------------------------
G----13--13--12-----
D----12--12--11-----
A------------------------
E------------------------


E--------------------------------
B--------------------------------
G----12--12--12--12(B)---
D----11--11--11--11(B)----
A--------------------------------
E--------------------------------


E------------------------------
B----5--5---------------------
G----5--5---------------------
D-----------7-5---7-5---7---
A------------------------------
E------------------------------

E---------------------------------------
B---------------------------------------
G----12--12--12--12--12--12----
D----11--11--11--11--11--11----
A---------------------------------------
E---------------------------------------

E------------
B------------
G----12----
D----11----
A----0------
E------------

E---------------------------------------------------------------------------
B---------------------------------------------------------------------------
G---------------------------------------------------------------------------
D-------------------------------------5-7-5------5-7-5------5----------
A---------3-5-3----------3--5/7------------7-----------7---------5----
E----/5------------3-5----------------------------------------------------

Loading...

to add this to Watch Later

Add to

Loading playlists...