Loading...

BEAT IT - Michael Jackson - Guitar Lesson

763,277 views

Loading...

Loading...

Transcript

The interactive transcript could not be loaded.

Loading...

Loading...

Rating is available when the video has been rented.
This feature is not available right now. Please try again later.
Published on Aug 1, 2009

♫Learn 100 Popular Rock Riffs Guitar Lesson: https://youtu.be/EJSz2QxB5oo
My guitar lesson website: http://www.bobsguitarlessons.yolasite...

**TABS FOR THIS LESSON: http://jpst.it/Aeit
How to play Beat It by Michael Jackson, one of the most popular pop songs from the 1980's! Guitar lesson with step by step method with easy to follow tabs in the video.

TABS for this lesson available on my guitar lesson website: http://www.bobsguitarlessons.yolasite...
Facebook: https://www.facebook.com/BobbyCrispyG...

E-----------------------------------------------------------------------------------------
B-----------------------------------------------------------------------------------------
G-----------------------------------------------------------------------------------------
D-----------------5--2---2-4(H)--2--0--0----------------5--2---2-4(H)--2--0---
A-------------2-------------------------------------------2------------------------------
E----0---3--------------------------------------0---3----------------------------------

E------------------------------------------------------------------
B------------------------------------------------------------------
G----X--X--X--X--12---12-------X--X--11--11-------------
D----X--X--X--X--12---12--14--X--X--12--12---12------
A-------------------------------14----------------12------------
E------------------------------------------------------------------

E--------------------------------------------------------------------------
B--------------------------------------------------------------------------
G---9--9---9---7--7---7-----9--9---9---7--7---7----5--5---5----
D---9--9---9---7--7---7-----9--9---9---7--7---7----5--5---5-----
A--------------------------------------------------------------------------
E--------------------------------------------------------------------------

E------------------------------------------------
B------------------------------------------------
G---7--7---7----9--9--9-----7--7--7-------
D---7--7---7----9--9--9-----7--7--7-------
A------------------------------------------------
E------------------------------------------------


E---0--0--0-----0--0--0-----0--0--0------0--0--0-------

E-------------------------------------------------------
B-------------------------------------------------------
G-------------------------------------------------------
D---9--9--9----7--7--7----9--9--9----7--7--7---
A---7--7--7----5--5--5----7--7--7----5--5--5---
E-------------------------------------------------------

E-------------------------------------------------------
B-------------------------------------------------------
G-------------------------------------------------------
D---5--5--5----7--7--7----9--9--9-----7--7--7--
A---3--3--3----5--5--5----7--7--7-----5--5--5--
E-------------------------------------------------------

Loading...

Advertisement
When autoplay is enabled, a suggested video will automatically play next.

Up next


to add this to Watch Later

Add to

Loading playlists...