Upload

Loading...

"Like To Love You" Original Song by Noelle Bean

43,177

Loading...

Loading...

Loading...

Rating is available when the video has been rented.
This feature is not available right now. Please try again later.
Published on Mar 29, 2011

Another love song, people. Let me know what you think!

Be nice. It's rough but I was sleepy :P
Anyways the capo is on the 6th fret
Here's the tab:

Verse:
e -----------------------------------
B--------2------2-------------2---
G--------2------2-----2------2--- 2 times
D--------2-------------2-----------
A-----------------------------------
E-----------------------------------

Pre-Chorus:
e----------------------------------
B---------------------------------
G-------2------4-------6-------- 2 times
D-------4------6-------7--------
A---------------------------------
E---------------------------------

Chorus:
e -----------------------------------
B--------2------2-------------2---
G--------2------2-----2------2--- 2 times
D--------2-------------2-----------
A-----------------------------------
E-----------------------------------

Bridge:
e--------2-------------------------
B-------2---------------------2---
G-------2------1-----2------2--- 4 times
D---------------2-----2-----------
A----------------------------------
E----------------------------------

P.S. this is the 1st tab I've ever done so...any questions just let me know!!
:)

Grab my EP, "Rollercoaster", here!
iTunes: http://smarturl.it/0ru68k
Amazon Music: http://smarturl.it/02yc1r
Google Play: http://smarturl.it/u7uy4r

  • Category

  • License

    • Standard YouTube License

Loading...

When autoplay is enabled, a suggested video will automatically play next.

Up Next


Sign in to add this to Watch Later

Add to