60
  • Love Someone Else - Lower Than Atlantis Cover + TAB!

    455 views 4 years ago
    Title says it all.
    I couldn't find the tab anywhere so I wrote them out myself:

    Intro
    -----------------------------------------------------------------
    ---------------------------------------------------------------
    ---------------------------------------------------------------
    -----0----9--9---3--3----5--5---8---8----1--1-----0----
    -----0----9--9---3--3----5--5---8---8----1--1-----0----
    -----0----9--9---3--3----5--5---8---8----1--1-----0----

    -----------------------------------------------------------------
    -----------------------------------------------------------------
    -----------------------------------------------------------------
    -----0----9--9---3--3----5--5---8---8----11--11----0----
    -----0----9--9---3--3----5--5---8---8----11--11----0----
    -----0----9--9---3--3----5--5---8---8----11--11----0----


    Verse (Gradually bend B string (3) up and down)
    -------------2------2------2--------2-------2-------2-------2-------2------
    ---------3------3------3-------3-------3--------3------3-------3----------
    --------------------------------------------------------------------------------
    --------------------------------------------------------------------------------
    --------------------------------------------------------------------------------
    --------------------------------------------------------------------------------
    Then intro again once


    Chorus
    ----------------------------------------------------------------------
    ----------------------------------------------------------------------
    -------2---------------5-------------7----------10----------10---
    -------0---x16------4--x16------5--x16----8--x8-------9---x8 x2
    -------0--------------3-------------5------------8------------9---
    -------0--------------4-------------5------------8------------0---




    Verse 2

    Intro part once again

    ---3---------------------------------
    ---2--------------------------------
    ---3--------------------------------
    ---0--------------------------------
    ---0--------------------------------
    ---0------------------------0\----- (Pick slide)

    ----------------------------------------------------------------
    ---------------------------------------------------------------
    ---------------------------------------------------------------
    -----0----9--9---3--3----5--5---8---8----1--1-----0----
    -----0----9--9---3--3----5--5---8---8----1--1-----0----
    -----0----9--9---3--3----5--5---8---8----1--1-----0----

    -----------------------------------------------------------------
    -----------------------------------------------------------------
    -----------------------------------------------------------------
    -----0----9--9---3--3----5--5---x-x---x--x---x---x--x---
    -----0----9--9---3--3----5--5---x-x---x--x---x---x--x---
    -----0----9--9---3--3----5--5---x-x---x--x---x---x--x--

    ------------------------------------------------------------------------------------------
    --------------------------------------------------------------2--------------------------
    --------------------------------------------------------------3-----2-2-2-2--4-4-4--
    -----0----9--9---3--3----5--5---8---8----1--1-----0--0--------------------------
    -----0----9--9---3--3----5--5---8---8----1--1-----0--0--------------------------
    -----0----9--9---3--3----5--5---8---8----1--1-----0--0--------------------------

    -Chorus part again then:

    ----3--3------3--3------3--3------3--3---3--3--3---
    ----2--2------2--2------2--2------2--2---2--2--2---
    ----------------------------------------------------------
    ---------------------------------------------------------
    ---------------------------------------------------------
    ---------------------------------------------------------

    ----3--3--3--3----3--3--3--3------------------------------
    ----2--2--2--2----2--2--2--2------------------------------
    -------------------------------------2-2-2-2--4-4-4--------
    ----------------------------------------------------------------
    ----------------------------------------------------------------
    ----------------------------------------------------------------

    -Chorus part again

    ----------------------------------------------------------------3----
    ----------------------------------------------------------------2----
    ----------------------------------------------------------------3----
    -----0----9--9---3--3----5--5---8---8----1--1-----0----0----
    -----0----9--9---3--3----5--5---8---8----1--1-----0----0----
    -----0----9--9---3--3----5--5---8---8----1--1-----0----0---- Show less
    Read more
  • Music Play all

    My music stuff
    This item has been hidden
  • Uploads Play all

    This item has been hidden
  • Liked videos Play all

    This item has been hidden
to add this to Watch Later

Add to

Loading playlists...