Upload

Loading icon Loading...

This video is unavailable.

halo 2 theme bass guitar (learn to play it)

Sign in to YouTube

Sign in with your Google Account (YouTube, Google+, Gmail, Orkut, Picasa, or Chrome) to like Rodrigo Souza's video.

Sign in to YouTube

Sign in with your Google Account (YouTube, Google+, Gmail, Orkut, Picasa, or Chrome) to dislike Rodrigo Souza's video.

Sign in to YouTube

Sign in with your Google Account (YouTube, Google+, Gmail, Orkut, Picasa, or Chrome) to add Rodrigo Souza's video to your playlist.

Uploaded on Oct 12, 2007

GUYS I'M MAKING A NEW VIDEO OF HALO 2 THEME (HOW TO PLAY)


GUYS, I MADE THE TABS JUST FER U GUYS
ENJOY :)

G |------0-----2--0----------------------|
D |-2--4----4--------4----2---------------­-|
A |-----------------------------------|
E |-----------------------------------|

G |-2--4--5--4-----4--2-------------------­--|
D |-------------5----------------------|
A |-----------------------------------|
E |-----------------------------------|

G |---------0-2---------0----------------|
D |------0-2------4---2----4--2--4--0--2--­-----|
A |--0-2--------------------------------|
E |-----------------------------------|


G |-------------------------------------| practically hole song
D |-------------------------------------|
A |-------7-7--------9-9-------10-10-----1­2----12-10-9-|
E |-0000-------0000-------0000-------000--­--000---------0--|

  • Category

  • License

    Standard YouTube License

Loading icon Loading...

Loading icon Loading...

Loading icon Loading...

Loading icon Loading...

Ratings have been disabled for this video.
Rating is available when the video has been rented.
This feature is not available right now. Please try again later.

Loading icon Loading...

Advertisement
Loading...
Working...
to add this to Watch Later

Add to