Upload

Loading icon Loading...

This video is unavailable.

Money - Pink Floyd - Bass Cover (With Tab)

Sign in to YouTube

Sign in with your Google Account (YouTube, Google+, Gmail, Orkut, Picasa, or Chrome) to like Eddie Bass's video.

Sign in to YouTube

Sign in with your Google Account (YouTube, Google+, Gmail, Orkut, Picasa, or Chrome) to dislike Eddie Bass's video.

Sign in to YouTube

Sign in with your Google Account (YouTube, Google+, Gmail, Orkut, Picasa, or Chrome) to add Eddie Bass's video to your playlist.

Uploaded on Nov 27, 2010

Money tab:

All riffs below:

G||-----4---------------
D||------4---------0---
A ||--2---2---0-2-----
E||----------2----------

G||-------------------4-----
D||--0-----------0----4---
A||----2---0--2---2----2-
E||------2------------------

G||-------------------------------------­-------
D||--4--4----------4-3-2-2-----------0--­--
A ||-------4----0-4----------2----0-2---2-­-
E||---------2-------------------3-------­------

G||-------9---------------------
D||---------9--------------5---
A ||---7------7-----5--7------
E||---------------7-------------

G||-------------------------------------­-------||-------------------
D||--4--4----------4-3-2-2-----------0--­--||-------------------
A ||-------4----0-4----------2----0-2---2-­-||--2-2-2-2-2-2-
E||---------2-------------------3-------­------||-------------------

G||-------------------------------------­-
D||-------------------------------------­-
A ||--2---2-5-4-3-2---2-5-4-3-2--
E||-------------------------------------­-

G||-------------------------------------­-
D||-------------------------------------­-
A ||--2---7-6-5-4---4-7-6-5-4-----
E||-------------------------------------­-

G||------------------------------
D||------4-3-2-----4-3-2----
A||------------------------------
E||--2-2-------2-2------------

G||--4-2--------------------
D||-------5-4-2------------
A||---------------5-4-3-2--
E||--------------------------

G||-----------------------------------
D||-----------------------------------
A ||-------5---5-----5---5-----5---
E||--7-7---7---7-7---7---7-7----


Facebook: www.facebook.com/profile.php?id=16567018­74

  • Category

  • License

    Standard YouTube License

Loading icon Loading...

Loading icon Loading...

Loading icon Loading...

The interactive transcript could not be loaded.

Loading icon Loading...

Loading icon Loading...

Ratings have been disabled for this video.
Rating is available when the video has been rented.
This feature is not available right now. Please try again later.

Loading icon Loading...

Loading...
Working...
to add this to Watch Later

Add to