Upload
15,040

Subscription preferences

Loading...

Loading icon Loading...

Working...

Anatoly Volnov

Miguel the Sniper

574,099 views 1 year ago
Just a silly thing inspired by The Road to El Dorado.


The guitar recording is original.
Yes, there is some jerkiness, couldn't look at it any longer, decided to upload.

Chords
E|-7--8----7----5----4---1---0
B|-7--8----7----5----4---1---0
G|-8--9----8----6----5---2---1
D|-9--10---9----7----6---3---2
A|-9--10---9----7----6---3---2
E|-7---9----7----5----4---1---­0
Read more
Just a silly thing inspired by The Road to El Dorado.


The guitar recording is original.
Yes, there is some jerkiness, couldn't look at it any longer, decided to upload.

Chords
E|-7--8----7----5----4---1---0
B|-7--8----7----5----4---1---0
G|-8--9----8----6----5---2---1
D|-9--10---9----7----6---3---2
A|-9--10---9----7----6---3---2
E|-7---9----7----5----4---1---­0 Show less

Recent uploads Play

Loading...
Working...
Sign in to add this to Watch Later

Add to